Pillows - She Is Perfect Chords & Tabs

 

She Is Perfect Chords & Tabs

Pillows Chords & Tabs

Version: 1 Type: Chords 0 ratings
1 star 2 stars 3 stars 4 stars 5 stars
comments

She Is Perfect Chords

   
The Pillows
"She is Perfect"

Tablature by 
André Medeiros


Intro
E------------------
B------------------
G------------------
D------------------
A------------------
E-5h7--7p5h7--7p5h7

Main riff:

E----------------------
B----------------------
G-11h12-11h12-11-4h6p4~
D----------------------
A----------------------
E---------------------- 


 A      A      A
Sukitooru hitomi de 
        G
Uso tsuite
A    A   A
Dokomade ochitemo 
       G
Yogorenai

A        B
She is perfect
F#m         E
I'm fall in love
A        B
She is nonsect
F#m      E 
Kaze no you sa
B          D 
Kanjireru dake 

A       A    A
Nani mo motanai de
          G 
Michitariteiru
A    A     A 
Migakarenakutemo
        G 
Kagayakeru
 
A         B
She is perfect
F#m          E 
I'm fall in love
A        B
She is nonsect
F#m        E
Mizu mitai da 
B            D
Kawari nan de nai 
[ Tab from: http://www.guitartabs.cc/tabs/p/pillows/she_is_perfect_crd.html ]
Solo: 
E-----------------------------------------------
B-----------------------------------------------
G----7--4--/9-7--6--/11--9---6-7-9--7h9-/11-----
D--4--------------------------------------------
A-----------------------------------------------
E-----------------------------------------------

E---------------------------------------------------------------------------
B--------------------------10-----------------------------------------------
G----7--4--/9-7--6--/11--9----11-9-7----------------------------------------
D--4--------------------------------11~--11p9h11/12--12p11h12/13--13p12h13/~
A---------------------------------------------------------------------------
E---------------------------------------------------------------------------


A         B
She is perfect
F#m          E
I'm fall in love
A        B
She is nonsect
F#m      E
Kaze no you sa 
B           D    B            D
Katachi wa naku nani iro de mo nai 
B       D
Tsukamaerezu 
B         D
Kanjireru dake

D       B
perfect girl..
D       B
perfect girl..
D       B
perfect girl..

E-Mail-me Please!
and8@zipmail.com.br
Comments