Pillows - Scent Of Sweet Chords & Tabs

 

Scent Of Sweet Chords & Tabs

Pillows Chords & Tabs

Version: 1 Type: Tab 0 ratings
1 star 2 stars 3 stars 4 stars 5 stars
comments

Scent Of Sweet Tab

   
the pillows - scent of sweet

tuning: normal(eadgbe)

tabbed by: aElLyN

contact: aElLyN118@yahoo.com

h=hammeron
p=pulloff
//=slide

a short song, but hard to tab
expect lots of mistakes, i made up much of it

intro
========================================================================================
guitar one (repeat until singing starts)
-------------------|-------------------|-------------------|-------------------|
-------------------|-------------------|-------------------|-------------------|
------4------------|--2-2-2-5-5-4-2----|------4------------|--5-5-4-5-4-2------|
--5-5---5-2-2---2--|-------------------|--5-5---5-2-2---2--|--5-5-4-5-4-2------|
-------------------|-------------------|-------------------|--3-3-2-3-2-0------|
-------------------|-------------------|-------------------|-------------------|

guitar two (may be the bass part X_X, played very smoothly)
-------------------|-------------------|-------------------|
-------------------|-------------------|-------------------|
-------------------|-------------------|-------------------|
--5--5-5--5--------|--5--5-5-----------|--//2-2--0--2--0-0-|
-------------------|-------------------|-------------------|
-------------------|-------------------|-------------------|


-------------------|-------------------|---------------------|-----------------|
-------------------|-------------------|---------------------|-----------------|
-------------------|-------------------|---------------------|-----------------|
2//5--4-5-7-7h9-5--|--0-0h2--0-0-------|5--4-5-7-7h9-10-12-9-|--10-10-9-10-9---|
-------------------|-------------------|---------------------|---------------12|
-------------------|-------------------|---------------------|-----------------|
========================================================================================
[ Tab from: http://www.guitartabs.cc/tabs/p/pillows/scent_of_sweet_tab.html ]
verse
========================================================================================
guitar two (this is wrong)
----3---3--3-------|----8------5-------|-------------------|
--3---3------------|--5---5--5---5-----|-------------------|
-------------------|-------------------|--5-5-4-5-4-2------|
-------------------|-------------------|--5-5-4-5-4-2------|
-------------------|-------------------|--3-3-2-3-2-0------|
-------------------|-------------------|-------------------|

-------------------|-------------------|-------------------|
-------------------|-------------------|-------------------|
----0---0--0-------|----5------2-------|--5-5-4-5-4-2------|
--0---0------------|--2---2--2---2-----|--5-5-4-5-4-2------|
-------------------|-------------------|--3-3-2-3-2-0------|
-------------------|-------------------|-------------------|
========================================================================================

pre-chorus (0:39)
========================================================================================
guitar one
 Bm        G          Bm        G          Bm        G          G         Bm
--2---------3-------|--2---------3-------|--2---------3-------|--3---------2-------|
--3---------3-------|--3---------3-------|--3---------3-------|--3---------3-------|
--4---------4-------|--4---------4-------|--4---------4-------|--4---------4-------|
-4---------5--------|-4---------5--------|-4---------5--------|-5---------4--------|
-2---------5--------|-2---------5--------|-2---------5--------|-5---------2--------|
-----------3--------|-----------3--------|-----------3--------|-3------------------|

========================================================================================

chorus (0:54)
========================================================================================
 G          C                   G  Em F     C  C
-3----------3------|           -3--0--1-----------|
-3----------5------|           -3--0--1-----------|
-4----------5------| repeat x2 -4--0--2-----5--5--| back to intro
-5----------5------|           -5--2--3-----5--5--|
-5----------3------|           -5--2--3-----3--3--|
-3-----------------|           -3--0--1-----------|
========================================================================================
Comments