Pillows - Rush Chords & Tabs

 

Rush Chords & Tabs

Pillows Chords & Tabs

Version: 1 Type: Tab 0 ratings
1 star 2 stars 3 stars 4 stars 5 stars
comments

Rush Tab

Song: Rush
By  : The Pillows
Tab by:Mike cortez

Here's another Pillows song for the FLCL soundtrack.
Don't be surprised if there's a few mistakes, I wanted
to have this one done by the time of my birthday
i'm getting old(waugh!! ), everybody's looking at me....eeh?

INTRO/VERSE
e-------------------------------------------|
B-------------------------------------------|
G--7-7-7-7----------------------------------|
D--7-7-7-7-7-7-7-7-5-5-5-5-9-9-9-9-9-9-9-9--|
A--5-5-5-5-7-7-7-7-5-5-5-5-9-9-9-9-9-9-9-9--|
E----------5-5-5-5-3-3-3-3-7-7-7-7-7-7-7-7--|

e---------------------------------|
B---------------------------------|
G---------------------------------|
D--2-2-2-2-2-2-5-7--7-7-7-7-7-7-7-|
A--2-2-2-2-2-2-5-7--7-7-7-7-7-7-7-|
E--0-0-0-0-0-0-3-5--5-5-5-5-5-5-5-|

e------------------------------------|
B------------------------------------|
G------------------------------------|
D--5-5-5-5-5-5-5-7--7-7-7-7-7-7-7-7--|
A--5-5-5-5-5-5-5-7--7-7-7-7-7-7-7-7--|
E--3-3-3-3-3-3-3-5--5-5-5-5-5-5-5-5--|
[ Tab from: http://www.guitartabs.cc/tabs/p/pillows/rush_tab.html ]
e------------------------------------|
B------------------------------------|
G------------------------------------|
D--5-5-5-5-5-5-5-7--7-7-7-7-7-7-7-7--|
A--5-5-5-5-5-5-5-7--7-7-7-7-7-7-7-7--|
E--3-3-3-3-3-3-3-5--5-5-5-5-5-5-5-5--|

During the verse, he plays this to lead into the bridge:

e-----
B-----
G--4-- (He plays this a few times)
D--4--
A--2--
E-----

Then he plays something like this in the bridge/chorus:

e----          ---|
B----          ---|
G----          -7-|           (Repeat twice)
D--5-          -7-|
A--5-          -5-|8b9
E--3-(16 times)---|(16 times)

Before the little guitar solo, he plays this:
e-----------|
B-----------|
G-----------|
D--7-7-7-4--| (Again, he plays it a few times)
A--7-7-7-4--|
E--5-5-5-2--|

The Little Solo:
e---------------------------------------|
B--------------------10-10-9-9-8-8-7-7--|
G--7-7-8-8-9-9-10-10--------------------|
D---------------------------------------|
A---------------------------------------|
E---------------------------------------|

Something like that.
I left one section out of the tab because I'm
feeling a little too lazy to figure out right now...
email me if you really want me to tab it.
Comments