Pillows - Runner's High Chords & Tabs

 

Runner's High Chords & Tabs

Pillows Chords & Tabs

Version: 1 Type: Tab 0 ratings
1 star 2 stars 3 stars 4 stars 5 stars
comments

Runner's High Tab

Band:  Pillows
Song:  Runners High (FLCL Version)
Tab:   Michel da Cruz
Email: micheldacruz@aol.com

Part 1 (2x)

e|---------------------------------------------|
b|---------------------------------------------|
g|--13-13----10-10----8----6-6-6----8-8----13--|
D|--13-13----10-10----8----6-6-6----8-6----13--|
A|--11-11-----8--8----6----4-4-4----6-6----11--|
E|---------------------------------------------|
                      |                     |
                      6x                    7x
                                  2nd Time: 3x

Part 2
[ Tab from: http://www.guitartabs.cc/tabs/p/pillows/runners_high_tab.html ]
e|--------------------------------------------------------------|
b|--6--------------10-------------------------------------------|
g|--6----6----8-----8----6-6\5--6-6\5--6-6\5--8-8\7--8-8\7----8-|
D|--4----6----8-----8----6-6\5--6-6\5--6-6\5--8-8\7--8-8\7----8-|
A|-------4----6----------4-4\3--4-4\3--4-4\3--6-6\5--6-6\5----6-|
E|--------------------------------------------------------------|
    |    |    |     |                                         |
    8x   8x   8x    8x                                        9x


Order to Play

Part 1 ...2x
Part 2
Part 1 ...2x
Part 2
Part 1
Comments