Pillows - Riding On A Shooting Star Chords & Tabs

 

Riding On A Shooting Star Chords & Tabs

Pillows Chords & Tabs

Version: 1 Type: Bass Tab 0 ratings
1 star 2 stars 3 stars 4 stars 5 stars
comments

Riding On A Shooting Star Bass Tab

The Pillows
Riding on a shooting star
Standard tuning
Tabbed by Alex Fragd (mavrick_45)


Intro X8
G-----------------
D-----------------
A---0000---0000---
E-----------------


G--------------------------------------------
D--------------------------------------------
A-----------------------22222222-------------
E---33333333--22222222------------00000000---

G---------------------------------------------------
D---------------------------------------------------
A-------------------------55555555---22-0-2-0-2-0---
E---33333333---55555555-----------------------------


G------------------------------------------
D------------------------------------------
A-----------5-2-0/5------------------------
E---333333------------000000--66--777777---

G------------------------------------------
D------------------------------------------
A-----------5-2-0/5------------------------
E---333333------------000000--66--777777---

G-------------------------
D-------------------------     X6
A---55555555--------------
E--------------55555555---
[ Tab from: http://www.guitartabs.cc/tabs/p/pillows/riding_on_a_shooting_star_btab.html ]
G--------------------------------------------
D--------------------------------------------
A-----------------------22222222-------------
E---33333333--22222222------------00000000---

G---------------------------------------------------
D---------------------------------------------------
A-------------------------55555555---22-0-2-0-2-0---
E---33333333---55555555-----------------------------

G------------------------------------------
D------------------------------------------
A-----------5-2-0/5------------------------
E---333333------------000000--66--777777---

G------------------------------------------
D------------------------------------------
A-----------5-2-0/5------------------------
E---333333------------000000--66--777777---

G------------------------------------------
D------------------------------------------
A-----------5-2-0/5------------------------
E---333333------------000000--66--777777---

G-------------------------------------------------------
D-------------------------------------------------------
A-----------5-2-0/5-------------------------------------
E---333333------------000000--66--777777---88-7-8-7-8---

G-------------------------
D-------------------------     X3
A---55555555--------------
E--------------55555555---
Comments