Pillows - Ride On Shooting Star Chords & Tabs

 

Ride On Shooting Star Chords & Tabs

Pillows Chords & Tabs

Version: 1 Type: Tab 0 ratings
1 star 2 stars 3 stars 4 stars 5 stars
comments

Ride On Shooting Star Tab

Song: Ride on Shooting Star
Artist: The Pillows
Album: FLCL OST 1 - Addict
Tabbed By: Shinkoshi Raigaa

Standard Tuning

Intro and Verse (for the most part)
|-----------------88--8888------------------|
|-----------------77--7777------------------|
|-7-7-7-----------77--7777------------------|
|-----------------77--7777------------------|
|----------0/9------------------------------|
|-------------------------------------------|
  (there variations of this when you hear the song)

[ Tab from: http://www.guitartabs.cc/tabs/p/pillows/ride_on_shooting_star_tab.html ]
 Bridge
|---|---|---|---|---|---|---|--------------------------|
|---|---|---|---|---|---|---|--------------------------|
|---|---|-4-|---|---|---|-7-|--------------------------|
|-5-|-4-|-4-|-2-|-5-|-7-|-7-|-9-9-7-9-7-9-7------------|
|-5-|-4-|-2-|-2-|-5-|-7-|-5-|-9-9-7-9-7-9-7------------|
|-3-|-2-|---|-0-|-3-|-5-|---|-7-7-5-7-5-7-5------------|
(x8)(x8)(x8)(x8)(x8)(x8)(x7)
 These are Palm Muted By the way


Chorus
|---------------------------------------------------------|
|---------------------------------------------------------|
|----------------------7-7-7------------------------------|
|-5-5-5-5-5-5---/99-7--7-7-7-2-2-2-2-2--9-9-7-7-7---------|
|-5-5-5-5-5-5---/99-7--5-5-5-2-2-2-2-2--9-9-7-7-7---------|
|-3-3-3-3-3-3---/77-5--------0-0-0-0-0--7-7-5-5-5---------|(x whatever)


Theres a second guitar but i have 
no idea what it plays...as in all Pillows songs
Comments