Pillows - Paper Triangles Chords & Tabs

 

Paper Triangles Chords & Tabs

Pillows Chords & Tabs

Version: 1 Type: Tab 0 ratings
1 star 2 stars 3 stars 4 stars 5 stars
comments

Paper Triangles Tab

   
The Pillows - Paper Triangle
This is based off the live version cause on the cd they use a capo on 2 i think.  either 
it works
by bj

G1 Verse
e-------0-2-0-------------------------0-2-0-2-2-0--|
B--3-2h3-3-3-3--3-2h3-0-0-0-0-0--3-2h3-3-3--3--3-3-|
G---2------------------2-2-2-2----2---------2------|
D-0------------2----------------0------------------|
A--------------------------------------------------|
E--------------------------------------------------|

G2 Verse (Turn on the delay and play with a screwdriver)
e-------------------|
B-------------------|
G-7-7/11-11/7-7-----|
D-------------------|
A-------------------|
E-------------------|
[ Tab from: http://www.guitartabs.cc/tabs/p/pillows/paper_triangles_tab.html ]
G1 Pre Chrous
e-------------------|
B----5-----7-7------|
G---4-----6--7------|
D--5-----7---7------|
A-4----------5------|
E------5------------|

G2 Pre Chorus
e-------------------|
B-------------------|
G-7/9-9/11----------|
D-------------------|
A-------------------|
E-------------------|

G1: Upstroke
e-x-9-7-------------|
B-x-7-7-------------|
G-x-7-7-------------|
D-------------------|
A-------------------|
E-------------------|

Chorus:  (G1 play D and G)
G2 Play:
e-----------------------------------------|
B-2-2-2-2-0-0-2-2-2-2-2-0-2-2-2-2-2-2-2-2-|
G-2-2-2-2-2-2-2-2-2-2-2-2-0-0-0-0-0-0-0-0-|
D-0-0-0-0-0-0-0-0-0-0-0-0-0-0-0-0-0-0-0-0-|
A-------------------------2-2-2-2-2-2-2-2-|
E-------------------------3-3-3-3-3-3-3-3-|
Comments