Pillows - Paper Triangle Chords & Tabs

 

Paper Triangle Chords & Tabs

Pillows Chords & Tabs

Version: 1 Type: Tab 0 ratings
1 star 2 stars 3 stars 4 stars 5 stars
comments

Paper Triangle Tab

Song: Paper Triangle
Artist: The Pillows
Album: No Idea
Tabbed By: Shinkoshi Raigaa


Guitar  1

Main Riff
------------------0---------------------------------------------
----1---0h1-1-3-1---3-1-------1---0h1-1-------------------------
------0-------------------------0-------0-0h2-0-2-0-2-0-2-------
----------------------------0-----------------------------------
--3-------------------------------------------------------------
----------------------------------------------------------------

------------------0-----------0---------------------------------
----1---0h1-1-3-1---3-1---------3-3-1---------------------------
------0---------------------------------------------------------
----------------------------0-----------------------------------
--3-------------------------------------------------------------
----------------------------------------------------------------
[ Tab from: http://www.guitartabs.cc/tabs/p/pillows/paper_triangle_tab.html ]
Little Jig                                   Jazz Chords
----------------------------3-------------------7-----5---------
--------3----------5-------5--------------------5-----5---------
------4----------4--------4---------------------6-----6---------
----5----------5---------5--------------------------------------
--3---------------------3---------------------------------------
-------------3--------------------------------------------------

Distortion
--3-3-3-3-3-3--3-3-3-3-3-3--1-1-1-1-1-1--1-1-1-1-1-1------------
--5-5-5-5-3-3--5-5-5-5-3-3--1-1-1-1-1-1--1-1-1-1-1-1------------
--4-4-4-4-4-4--4-4-4-4-4-4--2-2-2-2-1-1--2-2-2-2-1-1------------
--5-5-5-5-5-5--5-5-5-5-5-5--3-3-3-3-3-3--3-3-3-3-3-3------------
--3-3-3-3-3-3--3-3-3-3-3-3--3-3-3-3-3-3--3-3-3-3-3-3------------
--3-3-3-3-3-3--3-3-3-3-3-3--1-1-1-1-1-1--1-1-1-1-1-1------------


The second guitar has a small part and is probably 
easy to figure out so yea... i think it uses a phase 
shifter or flanger. OK BYE
Comments