Pillows - Overamp Chords & Tabs

 

Overamp Chords & Tabs

Pillows Chords & Tabs

Version: 1 Type: Tab 0 ratings
1 star 2 stars 3 stars 4 stars 5 stars
comments

Overamp Tab

#----------------------------------PLEASE NOTE---------------------------------#
#This file is the author's own work and represents their interpretation of the #
#song. You may only use this file for private study, scholarship, or research. #
#------------------------------------------------------------------------------#

OVER AMP
As recorded by The Pillows



Transcribed by Frolectable

 
The best new song, oh yeah.  Well, except Kizuato no sasayaki Daremo Inai
Paradise, which I will be transcribing soon, hopefully.
 


Intro

  Gtr I
|------------------------------------------------------------0-0-0-----|
|-8-8-8-8-8-8-8-8-6-6-6-6-6-6-6-6-8-8-8-8-8-8-8--------------3S5-5-3-5-|
|-5-5-5-5-5-5-5-5-7-7-7-7-7-7-7-7-9-9-9-9-9-9-9----5---5-7-5-----------|
|-5-5-5-5-5-5-5-5-------------------------------/7---7-----------------|
|-----------------5-5-5-5-5-5-5-5-7-7-7-7-7-7-7------------------------|
|----------------------------------------------------------------------|


				Play this when entering into chorus
|--------------5-----------------|------0------------------------|
|-3---1h3-1--3---3S5\---1--------|-------------------------------|
|---2---------------------4p=2-2-|-0--2------7-7-7-7-7-7-7-7-7-7-|
|--------------------------------|-----------7-7-7-7-7-7-7-7-7-7-|
|--------------------------------|-----------5-5-5-5-5-5-5-5-5-5-|
|--------------------------------|-------------------------------|
[ Tab from: http://www.guitartabs.cc/tabs/p/pillows/overamp_tab.html ]
					Unison bends continually strummed.
	        you get the idea	Listen and you'll get the idea.	
|--------------------------------------------------------------------------|
|--------------------------------------8-------5-----6-----8-------10------|
|-7-7-7-7-7-7-------------------------10b12----7b9---8b10-10b12----12b14---|
|-7-7-7-7-7-7-3-3-3-3-3-3-3-3-3-3-3----------------------------------------|
|-5-5-5-5-5-5-3-3-3-3-3-3-3-3-3-3-3----------------------------------------|
|-------------1-1-1-1-1-1-1-1-1-1-1----------------------------------------|


Kickin solo

               ~                ~
|---------------------------------------12-----10----------10-----8--7-7--|
|------------5-6--5------8S=10--8--------------------13-------------------|
|----5---7----------7-5------------9S12-----12----12----12-----/9-9--7-7--|
|-/5---5---5--------------------------------------------------------------|
|-------------------------------------------------------------------------|
|-------------------------------------------------------------------------|


|-8-7-------5-8-7---------------------------------------------|
|---------5--------------------1-1-1-1-3-3-3-3--/5--/6--/8----|
|-9-7--/5----------4b5r=4-2-0--2-2-2-2-4-4-4-4--/5--/7--/9----|
|-------------------------------------------------------------|
|-------------------------------------------------------------|
|-------------------------------------------------------------|

Little outro guitar part

|------------------------------------^-0----|
|----6---6---8------6---6---10---8---^-8----|
|-/9---9---9-----/9---9---9----9-----^-9----|
|------------------------------------^10----|
|------------------------------------^-x----|
|------------------------------------^-8----|
Comments