Pillows - Our Love And Peace Chords & Tabs

 

Our Love And Peace Chords & Tabs

Pillows Chords & Tabs

Version: 1 Type: Tab 0 ratings
1 star 2 stars 3 stars 4 stars 5 stars
comments

Our Love And Peace Tab

The Pillows - Our Love and Peace
Tabbed by : Shinji[tEs]
http://www.geocities.com/shinji735/

h - hammer
p - pull off
x - block
~ - Vibrato
^ - Bend
r - release
PM - Palm Mute
\\ - Slide up to...
// - Slide down to...
~~~ - Let Ring

Comments : A nice and mellow song.  I can't really
remember, but I think this was in the Furikuri (FLCL)
anime.  Pretty simple song...I think the singer does
the electric part while singing with that funky (but
cool) voice of his.

(Acoustic)
e ------------------|--------------------------------|
B ------------------|--------------------------------|
G ------------------|--------------------------------|
D -2--4--3----------|-------0-----0----------0-----0-|
A -3--5--4--3--2--3-|---0h2---0h2---2----0h2---0h2---|
E ----------4--3--4-|-3----------------2-------------|

------------------------------|----------------------|
------------------------------|----------------------|
------------------------------|----------------------|
----------0-----0-------0-----|-------0--------------|
-2----0h2---0h2-----0h2---0h2-|---0h2----2-----------|
----0-------------------------|-3----------3---------|

[Chorus]
-3--3-3--3-3--3--3-3--3-3--0--0-0--0-0---------------|
-3--3-3--3-3--3--3-3--3-3--2--2-2--2-2---4--4-4--4-4-|
-0--0-0--0-0--0--0-0--0-0--2--2-2--2-2---4--4-4--4-4-|
-2--2-2--2-2--0--0-0--0-0--2--2-2--2-2---4--4-4--4-4-|
-3--3-3--3-3--2--2-2--2-2--0--0-0--0-0---2--2-2--2-2-|
--------------3--3-3--3-3----------------------------|
[ Tab from: http://www.guitartabs.cc/tabs/p/pillows/our_love_and_peace_tab.html ]
-3--3-3--3-3--3--3-3--3-3--0--0-0--0-0---------------|
-3--3-3--3-3--3--3-3--3-3--2--2-2--2-2---4--4-4--4-4-|
-0--0-0--0-0--0--0-0--0-0--2--2-2--2-2---4--4-4--4-4-|
-2--2-2--2-2--0--0-0--0-0--2--2-2--2-2---4--4-4--4-4-|
-3--3-3--3-3--2--2-2--2-2--0--0-0--0-0---2--2-2--2-2-|
--------------3--3-3--3-3----------------------------|

-3--3-3--3-3-----------------------------------------|
-3--3-3--3-3-----------------------------------------|
-0--0-0--0-0-----------------------------------------|
-2--2-2--2-2-----------------------------------------|
-3--3-3--3-3-----------------------------------------|
-----------------------------------------------------|

(Electric)
[Verse]
-------------2-------------0------------------------|
-----3---------3-------3-----3----------------------|
---4-------2---------0------------------------------|
-5-------4---------2--------------------------------|
----------------------------------------------------|
----------------------------------------------------|

-------------------------0--------------------------|
-----3-------3-------3-----3------------------------|
---4-------4-------4--------------------------------|
-5-------4-------2----------------------------------|
----------------------------------------------------|
----------------------------------------------------|
The top half is played twice I believe, then the
rest is the bottom half.


[Solo]
----------------------------------------------------|
----------------------------------------------------|
----------------------------------12-11hh12-12------|
-9^10r9^10r9^10---9^10---12-12~---------------------|
----------------------------------------------------|
----------------------------------------------------|

----------------------------------------------------|
----------------------------------------------------|
----------------------------------------------------|
----------------------------------------------------|
-9^10r----------------------------------------------|
-------12\\10^12------------------------------------|
Comments