Pillows - One Life Chords & Tabs

 

One Life Chords & Tabs

Pillows Chords & Tabs

Version: 2 Type: Tab 0 ratings
1 star 2 stars 3 stars 4 stars 5 stars
comments

One Life Tab

   
tabbed by Mike Cortez
this is my first full tab all the other ones are side projects....cool!!!
Artist: The Pillows
Album : FLCL Soundtrack
Song  : One Life
Author: David Drew @ dclowd9901@hotmail.com

This song is the first song played in the fantastic anime
series, FLCL. The Pillows are a popular J-Rock band out of
Japan (obviously). I won't bother putting any of the lyrics
in, as they're all in Japanese, and most people (outside
of Japan) don't speak Japanese.

I recommend listening to the song, if you haven't already.
It will give you a good idea of the progression, tempo and
rhythm, especially for the solo. This tab is all my own time
and work, so I appreciate it if credit is given to me if this
tab appears anywhere other than the OLGA.


Intro (repeat 4x)
-----------------

------3-------3-----------------------------------------------------------|
----3---3---3---3---------------------------------------------------------|
--5-------4-------4-------------------------------------------------------|
--------------------------------------------------------------------------|
--------------------------------------------------------------------------|
--------------------------------------------------------------------------|


Verse (repeat 2x)
-----------------

------3---0---0---1---3-------3-------------------------------------------|
--5---3---1---0---1---3---5---3-------------------------------------------|
--5---4---2---1---2---4---5---4-------------------------------------------|
--5---5---2---2---3---5---5---5-------------------------------------------|
--3---5---0---2---3---5---3---5-------------------------------------------|
------3-------0---1---3-------3-------------------------------------------|
  4x  4x  4x  4x  4x  4x  4x  4x


At end of 2nd time through verse progression (b is for "bend)
--------------------------------------------------------------

--------------------------------------------------------------------------|
---------3-3-3-3----------------------------------------------------------|
--0--2b--2-2-2-2----------------------------------------------------------|
--------------------------------------------------------------------------|
--------------------------------------------------------------------------|
--------------------------------------------------------------------------|


Prelude (once)
--------------

--5---7---1---3-----------------------------------------------------------|
--4---8---1---3---5---3b-3-3-3--------------------------------------------|
--7---9---2---4---5---2b-2-2-2--------------------------------------------|
--7---9---3---5---5-------------------------------------------------------|
--5---7---3---5---3-------------------------------------------------------|
----------1---3-----------------------------------------------------------|
  8x  8x  4x  4x


(h=hammer)
----------
[ Tab from: http://www.guitartabs.cc/tabs/p/pillows/one_life_tab_ver_2.html ]
--5---7---1---4---3----------------3--------------------------------------|
--4---8---1---4---3--------3----------------------------------------------|
--7---9---2---5---4---4h5-----4h5-----------------------------------------|
--7---9---3---6---5-------------------------------------------------------|
--5---7---3---6---5-------------------------------------------------------|
----------1---4---3-------------------------------------------------------|
  8x  8x  4x  4x  15x


chorus
------

--1---3-----------5---3-------7-------------------------------------------|
--1---3---5---3---4---3---5---8-------------------------------------------|
--2---4---5---3---7---4---5---9-------------------------------------------|
--3---5---5---5---7---5---5---9-------------------------------------------|
--3---5---3---3---5---5---3---7-------------------------------------------|
--1---3---------------3---------------------------------------------------|
  4x  4x  4x  4x  4x  4x  4x  x(strum)


--1---3-----------5--------------3----------------------------------------|
--1---3---5---3---4---5----------3----------------------------------------|
--2---4---5---3---7---5----------5----------------------------------------|
--3---5---5---5---7---5----------5----------------------------------------|
--3---5---3---3---5---3----------3----------------------------------------|
--1---3-------------------------------------------------------------------|
  4x  4x  4x  4x  8x  (let ring) x


Solo
----

>== Slide

-----------------------------------------------------------3-3-3-3-3-1-0--|
--1-1-3-1-3-3-1-2-1--5-5-5-5-------------------3b-----3----5-5-5-5-5-3-1--|
--0-0-0-0-2-2-0-3-0--4-4-4-4--4>5>4---0-2--2-5----------5-----------------|
------------------------------------2-------------------------------------|
--------------------------------------------------------------------------|
--------------------------------------------------------------------------|
(cont'd)

--------12-10-10-10-----------------------20-20>-|(cont'd)
---1----------------13-12-13-17--17-17-17--------|
-0---0-------------------------------------------|
-------------------------------------------------|
-------------------------------------------------|
-------------------------------------------------|

-----------16-15-13-15----------12-10-----8----8-----15-----15(let ring)-|
--17-15-13-----------------------------9b---9b---16b----16b--------------|
-----------------------12-12-12------------------------------------------|
-------------------------------------------------------------------------|
-------------------------------------------------------------------------|
-------------------------------------------------------------------------|

Back into chorus, then intro.

The solo's pretty simple, given some practice. A good
starting point for those wishing to start incorporating
old fashioned solos into their music playing.yep...good luck okies..^-^
Comments