Pillows - Monster Cc Chords & Tabs

 

Monster Cc Chords & Tabs

Pillows Chords & Tabs

Version: 1 Type: Tab 0 ratings
1 star 2 stars 3 stars 4 stars 5 stars
comments

Monster Cc Tab

   
Band: The Pillows
Song: Monster C.C.
Album: Smile
Tabber: Synix09 (synix09@hotmail.com)

Enjoy!

Key:
: = Let Ring
/ = Slide Down
\ = Slide Up

Guitar 1
E|--------------------------------|--------------------------------|
B|--------------------------------|--------------------------------|
G|--------------------------------|--------------------------------|
D|1-1-1-1-1-2-4-2-----------------|1-1-1-1-1-2-4-2/6-6-6-6-6-6-6-6-|
A|0-0-0-0-0-0-0-0-4-2-2-2-2-2-2-2-|0-0-0-0-0-0-0-0/7-7-7-7-7-7-7-7-|
E|----------------0-0-0-0-0-0-0-0-|--------------------------------|

Guitar 2
E|--------------------------------|--------------------------------|
B|--------------------------------|--------------------------------|
G|--------------------------------|--------------------------------|
D|--------------------------------|--------------------------------|
A|--------------------------------|--------------------------------|
E|--------------------------------|--------------------------------|

==========================================================================

Guitar 1
E|--------------------------------|--------------------------------|
B|--------------------------------|--------------------------------|
G|--------------------------------|--------------------------------|
D|2-2-2-4-4/6-4-2-----------------|--------------------------------|
A|0-0-0-0-0-0-0-0-4-2-2-2-2-2-2-2-|--------------------------------|
E|----------------0-0-0-0-0-0-0-0-|5-5-5-5-5-/-7-\-3-0:------------|

Guitar 2
E|--------------------------------|--------------------------------|
B|--------------------------------|--------------------------------|
G|--------------------------------|--------------------------------|
D|--------------------------------|--------------------------------|
A|--------------------------------|--------------------------------|
E|--------------------------------|--------------------------------|

==========================================================================

Guitar 1
E|--------------------------------|--------------------------------|
B|--------------------------------|--------------------------------|
G|--------------------------------|--------------------------------|
D|1-1-1-1-1-2-4-2-----------------|1-1-1-1-1-2-4-2/6-6-6-6-6-6-6-6-|
A|0-0-0-0-0-0-0-0-4-2-2-2-2-2-2-2-|0-0-0-0-0-0-0-0/7-7-7-7-7-7-7-7-|
E|----------------0-0-0-0-0-0-0-0-|--------------------------------|

Guitar 2
E|--------------------------------|--------------------------------|
B|--------------------------------|--------------------------------|
G|--------------------------------|--------------------------------|
D|--------------------------------|--------------------------------|
A|--------------------------------|--------------------------------|
E|--------------------------------|--------------------------------|

==========================================================================

Guitar 1
E|--------------------------------|--------------------------------|
B|--------------------------------|--------------------------------|
G|--------------------------------|--------------------------------|
D|2-2-2-4-4/6-4-2-----------------|--------------------------------|
A|0-0-0-0-0-0-0-0-4-2-2-2-2-2-2-2-|--------------------------------|
E|----------------0-0-0-0-0-0-0-0-|5-5-5-5-5-/-7-\-3-0:------------|

Guitar 2
E|--------------------------------|--------------------------------|
B|--------------------------------|----5-------5-------------------|
G|--------------------------------|------6-------6-----------------|
D|--------------------------------|--------7/9-----5-6:------------|
A|--------------------------------|--------------------------------|
E|--------------------------------|--------------------------------|

==========================================================================

Guitar 1
E|--------------------------------|--------------------------------|
B|--------------------------------|--------------------------------|
G|--------------------------------|--------------------------------|
D|1-1-1-1-1-2-4-2-----------------|1-1-1-1-1-2-4-2-6-6-6-6-6-6-6-6-|
A|0-0-0-0-0-0-0-0-4-2-2-2-2-2-2-2-|0-0-0-0-0-0-0-0-7-7-7-7-7-7-7-7-|
E|----------------0-0-0-0-0-0-0-0-|--------------------------------|

Guitar 2
E|--------------------------------|--------------------------------|
B|--------------------------------|------------------------9------9|
G|--------------------8---9-11-9~~|~~--------------------------11--|
D|----------------7/9---9---------|--------------------7/9---9-----|
A|--------------------------------|--------------------------------|
E|--------------------------------|--------------------------------|

==========================================================================

Guitar 1
E|--------------------------------|--------------------------------|
B|--------------------------------|--------------------------------|
G|--------------------------------|--------------------------------|
D|2-2-2-4-4/6-4-2-----------------|--------------------------------|
A|0-0-0-0-0-0-0-0-4-2-2-2-2-2-2-2-|--------------------------------|
E|----------------0-0-0-0-0-0-0-0-|5-5-5-5-5-/-7-\-3-0-------------|

Guitar 2
E|--------------------------------|--------------------------------|
B|-------9------------------------|----5-------5-------------------|
G|----11---9----------------------|------6-------6-----------------|
D|--9--------11-9-----------------|--------7/9-----5-6:------------|
A|--------------------------------|--------------------------------|
E|--------------------------------|--------------------------------|

==========================================================================

Guitar 1
E|--------------------------------|--------------------------------|
B|--------------------------------|--------------------------------|
G|------------------------9-------|--------------------------------|
D|7-7-----6---9---1111----9---9---|7-7-----6---9---2:--------------|
A|7-7-----6---9---1111----7---9---|7-7-----6---9---2:--------------|
E|5-5-----4---7---9-9---------7---|5-5-----4---7---0:--------------|

Guitar 2
E|5-5-5-5-4-4-7-7-9-9-9-9-0-0-7-7-|5-5-5-5-4-4-7-7-0:--------------|
B|5-5-5-5-4-4-7-7-9-9-9-9-0-0-7-7-|5-5-5-5-4-4-7-7-0:--------------|
G|6-6-6-6-5-5-8-8-101010101-1-8-8-|6-6-6-6-5-5-8-8-1:--------------|
D|7-7-7-7-6-6-9-9-111111112-2-9-9-|7-7-7-7-6-6-9-9-2:--------------|
A|7-7-7-7-6-6-9-9-111111112-2-9-9-|7-7-7-7-6-6-9-9-2:--------------|
E|5-5-5-5-4-4-7-7-9-9-9-9-0-0-7-7-|5-5-5-5-4-4-7-7-0:--------------|

==========================================================================

Guitar 1
E|--------------------------------|--------------------------------|
B|--------------------------------|--------------------------------|
G|------------------------9-------|--------------------------------|
D|7-7-----6---9---1111----9---9---|7-7-----6---9---2:--------------|
A|7-7-----6---9---1111----7---9---|7-7-----6---9---2:--------------|
E|5-5-----4---7---9-9---------7---|5-5-----4---7---0:--------------|

Guitar 2
E|5-5-5-5-4-4-7-7-9-9-9-9-0-0-7-7-|5-5-5-5-4-4-7-7-0:--------------|
B|5-5-5-5-4-4-7-7-9-9-9-9-0-0-7-7-|5-5-5-5-4-4-7-7-0:--------------|
G|6-6-6-6-5-5-8-8-101010101-1-8-8-|6-6-6-6-5-5-8-8-1:--------------|
D|7-7-7-7-6-6-9-9-111111112-2-9-9-|7-7-7-7-6-6-9-9-2:--------------|
A|7-7-7-7-6-6-9-9-111111112-2-9-9-|7-7-7-7-6-6-9-9-2:--------------|
E|5-5-5-5-4-4-7-7-9-9-9-9-0-0-7-7-|5-5-5-5-4-4-7-7-0:--------------|

==========================================================================

Guitar 1
E|--------------------------------|--------------------------------|
B|--------------------------------|--------------------------------|
G|--------------------------------|--------------------------------|
D|1-1-1-1-1-2-4-2-----------------|1-1-1-1-1-2-4-2/6-6-6-6-6-6-6-6-|
A|0-0-0-0-0-0-0-0-4-2-2-2-2-2-2-2-|0-0-0-0-0-0-0-0/7-7-7-7-7-7-7-7-|
E|----------------0-0-0-0-0-0-0-0-|--------------------------------|

Guitar 2
E|--------------------------------|--------------------------------|
B|--------------------------------|------------------------9------9|
G|--------------------8---9-11-9:-|----------------------------11--|
D|----------------7/9---9---------|--------------------7/9---9-----|
A|--------------------------------|--------------------------------|
E|--------------------------------|--------------------------------|

==========================================================================

Guitar 1
E|--------------------------------|--------------------------------|
B|--------------------------------|--------------------------------|
G|--------------------------------|--------------------------------|
D|2-2-2-4-4/6-4-2-----------------|--------------------------------|
A|0-0-0-0-0-0-0-0-4-2-2-2-2-2-2-2-|--------------------------------|
E|----------------0-0-0-0-0-0-0-0-|5-5-5-5-5-/-7-\-3-0-------------|

Guitar 2
E|--------------------------------|--------------------------------|
B|-------9------------------------|----5-------5-------------------|
G|----11---9----------------------|------6-------6-----------------|
D|--9--------9-11-9---------------|--------7/9-----5-6:------------|
A|--------------------------------|--------------------------------|
E|--------------------------------|--------------------------------|

==========================================================================

Guitar 1
E|--------------------------------|--------------------------------|
B|--------------------------------|--------------------------------|
G|--------------------------------|--------------------------------|
D|1-1-1-1-1-2-4-2-----------------|1-1-1-1-1-2-4-2/6-6-6-6-6-6-6-6-|
A|0-0-0-0-0-0-0-0-4-2-2-2-2-2-2-2-|0-0-0-0-0-0-0-0/7-7-7-7-7-7-7-7-|
E|----------------0-0-0-0-0-0-0-0-|--------------------------------|

Guitar 2
E|--------------------------------|--------------------------------|
B|--------------------------------|------------------------9------9|
G|--------------------8---9-11-9:-|----------------------------11--|
D|----------------7/9---9---------|--------------------7/9---9-----|
A|--------------------------------|--------------------------------|
E|--------------------------------|--------------------------------|

==========================================================================

Guitar 1
E|--------------------------------|--------------------------------|
B|--------------------------------|--------------------------------|
G|--------------------------------|--------------------------------|
D|2-2-2-4-4/6-4-2-----------------|--------------------------------|
A|0-0-0-0-0-0-0-0-4-2-2-2-2-2-2-2-|--------------------------------|
E|----------------0-0-0-0-0-0-0-0-|5-5-5-5-5-/-7-\-3-0-------------|

Guitar 2
E|--------------------------------|--------------------------------|
B|-------9------------------------|----5-------5-------------------|
G|----11---9----------------------|------6-------6-----------------|
D|--9--------11-9-----------------|--------7/9-----5-6:------------|
A|--------------------------------|--------------------------------|
E|--------------------------------|--------------------------------|

==========================================================================

Guitar 1
E|--------------------------------|--------------------------------|
B|--------------------------------|--------------------------------|
G|------------------------9-------|--------------------------------|
D|7-7-----6---9---1111----9---9---|7-7-----6---9---2:--------------|
A|7-7-----6---9---1111----7---9---|7-7-----6---9---2:--------------|
E|5-5-----4---7---9-9---------7---|5-5-----4---7---0:--------------|
[ Tab from: http://www.guitartabs.cc/tabs/p/pillows/monster_cc_tab.html ]
Guitar 2
E|5-5-5-5-4-4-7-7-9-9-9-9-0-0-7-7-|5-5-5-5-4-4-7-7-0:--------------|
B|5-5-5-5-4-4-7-7-9-9-9-9-0-0-7-7-|5-5-5-5-4-4-7-7-0:--------------|
G|6-6-6-6-5-5-8-8-101010101-1-8-8-|6-6-6-6-5-5-8-8-1:--------------|
D|7-7-7-7-6-6-9-9-111111112-2-9-9-|7-7-7-7-6-6-9-9-2:--------------|
A|7-7-7-7-6-6-9-9-111111112-2-9-9-|7-7-7-7-6-6-9-9-2:--------------|
E|5-5-5-5-4-4-7-7-9-9-9-9-0-0-7-7-|5-5-5-5-4-4-7-7-0:--------------|

==========================================================================

Guitar 1
E|--------------------------------|--------------------------------|
B|--------------------------------|--------------------------------|
G|------------------------9-------|--------------------------------|
D|7-7-----6---9---1111----9---9---|7-7-----6---9---2:--------------|
A|7-7-----6---9---1111----7---9---|7-7-----6---9---2:--------------|
E|5-5-----4---7---9-9---------7---|5-5-----4---7---0:--------------|

Guitar 2
E|5-5-5-5-4-4-7-7-9-9-9-9-0-0-7-7-|5-5-5-5-4-4-7-7-0:--------------|
B|5-5-5-5-4-4-7-7-9-9-9-9-0-0-7-7-|5-5-5-5-4-4-7-7-0:--------------|
G|6-6-6-6-5-5-8-8-101010101-1-8-8-|6-6-6-6-5-5-8-8-1:--------------|
D|7-7-7-7-6-6-9-9-111111112-2-9-9-|7-7-7-7-6-6-9-9-2:--------------|
A|7-7-7-7-6-6-9-9-111111112-2-9-9-|7-7-7-7-6-6-9-9-2:--------------|
E|5-5-5-5-4-4-7-7-9-9-9-9-0-0-7-7-|5-5-5-5-4-4-7-7-0:--------------|

==========================================================================

Guitar 1
E|--------------------------------|--------------------------------| \
B|--------------------------------|--------------------------------|  \
G|--------------------------------|--------------------------------|   | Not sure if this is right.
D|1-1-1-1-1-2-4-2-----------------|1-1-1-1-1-2-4-2/6-6-6-6-6-6-6-6-|   | Just a guess.
A|0-0-0-0-0-0-0-0-4-2-2-2-2-2-2-2-|0-0-0-0-0-0-0-0/7-7-7-7-7-7-7-7-|  /
E|----------------0-0-0-0-0-0-0-0-|--------------------------------| /

Guitar 2
E|-------------------12:--12-12-12|14-14-14-11-11-12-12-9-9-11-9\7~|
B|----------12:-------------------|--------------------------------|
G|---9:-8/9-----11/13-------------|--------------------------------|
D|7-------------------------------|--------------------------------|
A|--------------------------------|--------------------------------|
E|--------------------------------|--------------------------------|

==========================================================================

Guitar 1
E|--------------------------------|--------------------------------| \
B|--------------------------------|--------------------------------|  \
G|--------------------------------|--------------------------------|   | Not sure if this is right.
D|2-2-2-4-4/6-4-2-----------------|7-7-7-7-7-/-9-\-5-2-2-2-2-2-2-2-|   | Just a guess.
A|0-0-0-0-0-0-0-0-4-2-2-2-2-2-2-2-|7-7-7-7-7-/-9-\-5-2-2-2-2-2-2-2-|  /
E|----------------0-0-0-0-0-0-0-0-|5-5-5-5-5-/-7-\-3-0-0-0-0-0-0-0-| /

Guitar 2
E|--------------------------------|--------------------------------|
B|9/10-9-10-9-10-9-7-5-7-9-7-5:---|5-4-2-0-----------5-------------|
G|--------------------------------|------------1-2-4---------------|
D|--------------------------------|--------------------------------|
A|--------------------------------|--------------------------------|
E|--------------------------------|--------------------------------|

==========================================================================

Guitar 1
E|--------------------------------|--------------------------------|
B|--------------------------------|--------------------------------|
G|------------------------9-------|--------------------------------|
D|7-7-----6---9---1111----9---9---|7-7-----6---9---2-2---2-2-2-2-2-|
A|7-7-----6---9---1111----7---9---|7-7-----6---9---2-2---2-2-2-2-2-|
E|5-5-----4---7---9-9---------7---|5-5-----4---7---0-0---0-0-0-0-0-|

Guitar 2
E|5-5-5-5-4-4-7-7-9-9-9-9-0-0-7-7-|5-5-5-5-4-4-7-7-0-0---0-0-0-0-0-|
B|5-5-5-5-4-4-7-7-9-9-9-9-0-0-7-7-|5-5-5-5-4-4-7-7-0-0---0-0-0-0-0-|
G|6-6-6-6-5-5-8-8-101010101-1-8-8-|6-6-6-6-5-5-8-8-1-1---1-1-1-1-1-|
D|7-7-7-7-6-6-9-9-111111112-2-9-9-|7-7-7-7-6-6-9-9-2-2---2-2-2-2-2-|
A|7-7-7-7-6-6-9-9-111111112-2-9-9-|7-7-7-7-6-6-9-9-2-2---2-2-2-2-2-|
E|5-5-5-5-4-4-7-7-9-9-9-9-0-0-7-7-|5-5-5-5-4-4-7-7-0-0---0-0-0-0-0-|

==========================================================================

Guitar 1
E|--------------------------------|--------------------------------|
B|--------------------------------|--------------------------------|
G|------------------------9-------|--------------------------------|
D|7-7-----6---9---1111----9---9---|7-7-----6---9---2:--------------|
A|7-7-----6---9---1111----7---9---|7-7-----6---9---2:--------------|
E|5-5-----4---7---9-9---------7---|5-5-----4---7---0:--------------|

Guitar 2
E|5-5-5-5-4-4-7-7-9-9-9-9-0-0-7-7-|5-5-5-5-4-4-7-7-0:--------------|
B|5-5-5-5-4-4-7-7-9-9-9-9-0-0-7-7-|5-5-5-5-4-4-7-7-0:--------------|
G|6-6-6-6-5-5-8-8-101010101-1-8-8-|6-6-6-6-5-5-8-8-1:--------------|
D|7-7-7-7-6-6-9-9-111111112-2-9-9-|7-7-7-7-6-6-9-9-2:--------------|
A|7-7-7-7-6-6-9-9-111111112-2-9-9-|7-7-7-7-6-6-9-9-2:--------------|
E|5-5-5-5-4-4-7-7-9-9-9-9-0-0-7-7-|5-5-5-5-4-4-7-7-0:--------------|

==========================================================================

Guitar 1
E|--------------------------------|--------------------------------|
B|--------------------------------|--------------------------------|
G|------------------------9-------|--------------------------------|
D|7-7-----6---9---1111----9---9---|7-7-----6--9----2-2---2-2-2-2-2-|
A|7-7-----6---9---1111----7---9---|7-7-----6--9----2-2---2-2-2-2-2-|
E|5-5-----4---7---9-9---------7---|5-5-----4--7----0-0---0-0-0-0-0-|

Guitar 2
E|--------------------------------|--------------------------------|
B|--------------------------------|--------------------------------|
G|---------Guitar-2-does----------|--------------------------------|
D|---------a-scratching-----------|--------------------------------|
A|---------effect-here.-----------|--------------------------------|
E|--------------------------------|--------------------------------|

==========================================================================

Guitar 1
E|--------------------------------|--------------------------------|
B|--------------------------------|--------------------------------|
G|------------------------9-------|--------------------------------|
D|7-7-----6---9---1111----9---9---|7-7-----6--9----2:--------------|
A|7-7-----6---9---1111----7---9---|7-7-----6--9----2:--------------|
E|5-5-----4---7---9-9---------7---|5-5-----4--7----0:--------------|

Guitar 2
E|--------------------------------|--------------------------------|
B|--------------------------------|--------------------------------|
G|---------Guitar-2-does----------|--------------------------------|
D|---------a-scratching-----------|--------------------------------|
A|---------effect-here.-----------|--------------------------------|
E|--------------------------------|--------------------------------|

==========================================================================

Guitar 1
E|--------------------------------|--------------------------------|
B|--------------------------------|--------------------------------|
G|--------------------------------|--------------------------------|
D|1-1-1-1-1-2-4-2-----------------|1-1-1-1-1-2-4-2/6-6-6-6-6-6-6-6-|
A|0-0-0-0-0-0-0-0-4-2-2-2-2-2-2-2-|0-0-0-0-0-0-0-0/7-7-7-7-7-7-7-7-|
E|----------------0-0-0-0-0-0-0-0-|--------------------------------|

Guitar 2
E|--------------------------------|--------------------------------|
B|--------------------------------|--------------------------------|
G|--------------------------------|--------------------------------|
D|--------------------------------|--------------------------------|
A|--------------------------------|--------------------------------|
E|--------------------------------|--------------------------------|

Note: Other instruments come in.

==========================================================================

Guitar 1
E|--------------------------------|--------------------------------|
B|--------------------------------|--------------------------------|
G|--------------------------------|--------------------------------|
D|1-1-1-1-1-2-4-2-----------------|1-1-1-1-1-2-4-2/6-6-6-6-6-6-6-6-|
A|0-0-0-0-0-0-0-0-4-2-2-2-2-2-2-2-|0-0-0-0-0-0-0-0/7-7-7-7-7-7-7-7-|
E|----------------0-0-0-0-0-0-0-0-|--------------------------------|

Guitar 2
E|--------------------------------|--------------------------------|
B|--------------------------------|--------------------------------|
G|--------------------------------|--------------------------------|
D|--------------------------------|--------------------------------|
A|--------------------------------|--------------------------------|
E|--------------------------------|--------------------------------|

Note: other instruments come in.

==========================================================================

Guitar 1
E|--------------------------------|--------------------------------|
B|--------------------------------|--------------------------------|
G|--------------------------------|--------------------------------|
D|2-2-2-4-4/6-4-2-----------------|--------------------------------|
A|0-0-0-0-0-0-0-0-4-2-2-2-2-2-2-2-|--------------------------------|
E|----------------0-0-0-0-0-0-0-0-|5-5-5-5-5-/-7-\-3-0:------------|

Guitar 2
E|--------------------------------|--------------------------------|
B|--------------------------------|----5-------5-------------------|
G|--------------------------------|------6-------6-----------------|
D|--------------------------------|--------7/9-----5-6:------------|
A|--------------------------------|--------------------------------|
E|--------------------------------|--------------------------------|

==========================================================================

Guitar 1
E|--------------------------------|--------------------------------|
B|--------------------------------|--------------------------------|
G|--------------------------------|--------------------------------|
D|1-1-1-1-1-2-4-2-----------------|1-1-1-1-1-2-4-2/6-6-6-6-6-6-6-6-|
A|0-0-0-0-0-0-0-0-4-2-2-2-2-2-2-2-|0-0-0-0-0-0-0-0/7-7-7-7-7-7-7-7-|
E|----------------0-0-0-0-0-0-0-0-|--------------------------------|

Guitar 2
E|--------------------------------|--------------------------------|
B|--------------------------------|------------------------9------9|
G|--------------------8---9-11-9:-|----------------------------11--|
D|----------------7/9---9---------|--------------------7/9---9-----|
A|--------------------------------|--------------------------------|
E|--------------------------------|--------------------------------|

==========================================================================

Guitar 1
E|--------------------------------|--------------------------------|
B|--------------------------------|--------------------------------|
G|--------------------------------|--------------------------------|
D|2-2-2-4-4/6-4-2-----------------|--------------------------------|
A|0-0-0-0-0-0-0-0-4-2-2-2-2-2-2-2-|--------------------------------|
E|----------------0-0-0-0-0-0-0-0-|5-5-5-5-5-/-7-\-3-0:------------|

Guitar 2
E|--------------------------------|--------------------------------|
B|-------9------------------------|----5-------5-------------------|
G|----11---9----------------------|------6-------6-----------------|
D|--9--------11-9-----------------|--------7/9-----5-6:------------|
A|--------------------------------|--------------------------------|
E|--------------------------------|--------------------------------|

==========================================================================
Comments