Pillows - Last Dinosaur Chords & Tabs

 

Last Dinosaur Chords & Tabs

Pillows Chords & Tabs

Version: 2 Type: Tab 0 ratings
1 star 2 stars 3 stars 4 stars 5 stars
comments

Last Dinosaur Tab

intro
E|---0---0---0---0-0-----0---0---0---0-0-------------|
B|-----3-------3-----------3-------3-----------------|
G|-2-------2-----------0-------0---------------------|
D|---------------------------------------------------|
A|---------------------------------------------------|
E|---------------------------------------------------|
background intro (play 4x)
E|----------------------------------------------------|
B|----------------------------------------------------|
G|------------------5555555555555555------------------|
D|-3333333333333333-5555555555555555------------------|
A|-3333333333333333-3333333333333333------------------|
E|-1111111111111111-----------------------------------|

chorus (play 2x)
E|----------------------------------------------------|
B|----------------------------------------------------|
G|------------------5555555555555555------------------|
D|-3333333333333333-5555555555555555------------------|
A|-3333333333333333-3333333333333333------------------|
E|-1111111111111111-----------------------------------|

E|----------------------------------------------------|
B|----------------------------------------------------|
G|----------------------------------------------------|
D|-3333333333333333-2222222222222222------------------|
A|-3333333333333333-2222222222222222------------------|
E|-1111111111111111-0000000000000000------------------|

E|----------------------------------------------------|
B|----------------------------------------------------|
G|------------------5555555555555555------------------|
D|-3333333333333333-5555555555555555------------------|
A|-3333333333333333-3333333333333333------------------|
E|-1111111111111111-----------------------------------|

E|----------------------------------------------------|
B|----------------------------------------------------|
G|-7777777777777777-----------------------------------|
D|-7777777777777777-7777777777777777------------------|
A|-5555555555555555-7777777777777777------------------|
E|------------------5555555555555555------------------|

verse (play 4x)
E|----------------------------------------------------|
B|----------------------------------------------------|
G|----------77777777-5555555555555555-----------------|
D|-55555555-77777777-5555555555555555-----------------|
A|-55555555-55555555-3333333333333333-----------------|
E|-33333333-------------------------------------------|

bridge (play 2x)
E|----------------------------------------------------|
B|----------------------------------------------------|
G|------------------5555555555555555------------------|
D|-3333333333333333-5555555555555555------------------|
A|-3333333333333333-3333333333333333------------------|
E|-1111111111111111-----------------------------------|

chorus
E|----------------------------------------------------|
B|----------------------------------------------------|
G|------------------5555555555555555------------------|
D|-3333333333333333-5555555555555555------------------|
A|-3333333333333333-3333333333333333------------------|
E|-1111111111111111-----------------------------------|

E|----------------------------------------------------|
B|----------------------------------------------------|
G|----------------------------------------------------|
D|-3333333333333333-2222222222222222------------------|
A|-3333333333333333-2222222222222222------------------|
E|-1111111111111111-0000000000000000------------------|

E|----------------------------------------------------|
B|----------------------------------------------------|
G|------------------5555555555555555------------------|
D|-3333333333333333-5555555555555555------------------|
A|-3333333333333333-3333333333333333------------------|
E|-1111111111111111-----------------------------------|
[ Tab from: http://www.guitartabs.cc/tabs/p/pillows/last_dinosaur_tab_ver_2.html ]
E|----------------------------------------------------|
B|----------------------------------------------------|
G|-7777777777777777-----------------------------------|
D|-7777777777777777-7777777777777777------------------|
A|-5555555555555555-7777777777777777------------------|
E|------------------5555555555555555------------------|

verse (play 4x)
E|----------------------------------------------------|
B|----------------------------------------------------|
G|----------77777777-5555555555555555-----------------|
D|-55555555-77777777-5555555555555555-----------------|
A|-55555555-55555555-3333333333333333-----------------|
E|-33333333-------------------------------------------|

SoLi000ooooooooooo000000oooooo   (i dont think i did it right)
E|----------------------------------------------------------------|
B|----------------------------------------------------------------|
G|--/12--10-9-10-12---10-9-10-12--14-12--10-9-10\9-7-5-4-5-7------|
D|----------------------------------------------------------------|
A|----------------------------------------------------------------|
E|----------------------------------------------------------------|

E|---------------------------------------------------------10~--10--|
B|------------------------------------------------------------------|
G|------5-7-5-7/9-9~---9-9-9-7----7---------7-9--7-9-9-7-9---7-9----|
D|-7--7------------------------10---10----10---10-------------------|
A|------------------------------------------------------------------|
E|------------------------------------------------------------------|

(play this in the background of the solo)
E|----------------------------------------------------|
B|----------------------------------------------------|
G|------------------5555555555555555------------------|
D|-3333333333333333-5555555555555555------------------|
A|-3333333333333333-3333333333333333------------------|
E|-1111111111111111-----------------------------------|

verse (play 4x)
E|----------------------------------------------------|
B|----------------------------------------------------|
G|----------77777777-5555555555555555-----------------|
D|-55555555-77777777-5555555555555555-----------------|
A|-55555555-55555555-3333333333333333-----------------|
E|-33333333-------------------------------------------|

bridge
E|----------------------------------------------------|
B|----------------------------------------------------|
G|------------------5555555555555555------------------|
D|-3333333333333333-5555555555555555------------------|
A|-3333333333333333-3333333333333333------------------|
E|-1111111111111111-----------------------------------|

E|----------------------------------------------------|
B|----------------------------------------------------|
G|------------------5555555555555555------------------|
D|-3333333333333333-5555555555555555------------------|
A|-3333333333333333-3333333333333333------------------|
E|-1111111111111111-----------------------------------|

E|----------------------------------------------------|
B|----------------------------------------------------|
G|------------------5555555555555555------------------|
D|-3333333333333333-5555555555555555------------------|
A|-3333333333333333-3333333333333333------------------|
E|-1111111111111111-----------------------------------|

E|----------------------------------------------------|
B|----------------------------------------------------|
G|------------------5---------------------------------|
D|-3333333333333333-5---------------------------------|
A|-3333333333333333-3---------------------------------|
E|-1111111111111111-----------------------------------|

ok guys....this is mostly for the background but i did a little lead in there to....ive 
playin for like 6 weeks so it might be a little wrong but ya....put your own strumming 
there...i do it differently than what i put so its up to u...any way.....have fun
Comments