Pillows - Last Dinosaur Chords & Tabs

 

Last Dinosaur Chords & Tabs

Pillows Chords & Tabs

Version: 1 Type: Tab 0 ratings
1 star 2 stars 3 stars 4 stars 5 stars
comments

Last Dinosaur Tab

Song: Last Dinosaur
Artist: The Pillows
Album: FLCL OST 2
Tabbed By: Shinkoshi Raigaa

Standard tuning

   Intro and Chorus - Lead part
|---0---0---0---0-0-----0---0---0---0-0----|-3-|-1-|
|-----3-------3-----------3-------3--------|-2-|-1-|
|-2-------2-----------0-------0------------|-2-|-1-|
|------------------------------------------|-2-|---|
|------------------------------------------|---|---|
|------------------------------------------|---|---|
    Theres these 2 chord in the background just
    before the verse and i think its these two

   Intro - Background part
|------------------------------------------------|
|------------------------------------------------|
|-2-2-2-2-2-2-2-2-2-2-4-4-4-4-4-4-4-4-4-4--------|
|-3-3-3-3-3-3-3-3-3-3-5-5-5-5-5-5-5-5-5-5--------|
|-3-3-3-3-3-3-3-3-3-3-5-5-5-5-5-5-5-5-5-5--------|
|-1-1-1-1-1-1-1-1-1-1-3-3-3-3-3-3-3-3-3-3--------|
[ Tab from: http://www.guitartabs.cc/tabs/p/pillows/last_dinosaur_tab.html ]
  Verse
|------------------------------------------------|
|------------------------------------------------|
|------------------------------------------------|
|-5-5-5-5-5-5-5-5-5-5-3-3-3-3-3-3-3-3-3-3--------|
|-5-5-5-5-5-5-5-5-5-5-3-3-3-3-3-3-3-3-3-3--------|
|-3-3-3-3-3-3-3-3-3-3-1-1-1-1-1-1-1-1-1-1--------|

  SolooooOOO000000OOOoo   (but don't trust it)
|----------------------------------------------------------------|
|----------------------------------------------------------------|
|--/12--10-9-10-12---10-9-10-12--14-12--10-9-10\9-7-5-4-5-7------|
|----------------------------------------------------------------|
|----------------------------------------------------------------|
|----------------------------------------------------------------|

|---------------------------------------------------------10~--10|
|----------------------------------------------------------------|
|------5-7-5-7/9-9~---9-9-9-7----7---------7-9--7-9-9-7-9---7-9--|
|-7--7------------------------10---10----10---10-----------------|
|----------------------------------------------------------------|
|----------------------------------------------------------------|
Comments