Pillows - Juliet Chords & Tabs

 

Juliet Chords & Tabs

Pillows Chords & Tabs

Version: 1 Type: Tab 0 ratings
1 star 2 stars 3 stars 4 stars 5 stars
comments

Juliet Tab

Juliet
 The Pillows
 Tabbed by SJ (kirei_008@hotmail.com)

Intro (Distorted)
------------------------|
------------------------|
------------------------|
----6--4--s4-4---7-6----|
-7--4--2--s6-2---5-4-7--|
-5-------------------5--|

Verse (Clean)
-Rythym-GTR--
-------------|
----7--------|
----7--7-----|
-7-----5--7--|
-5--------5--|

 (Lead Guitar Distorted)
-9------9----12--9---------------9-----|
---10-----10-------10----10---12---10--|
----------------------9-----9----------|
---------------------------------------|
---------------------------------------|
---------------------------------------|

Pre Chorus
-------------------------- ---------------------------------------------------|
---------[5--------------- ---------------------------------------------------|
------------7-6]---------- ---------------------------------------------------|
-4--7------------4--7----- ---------------------------------------------------|
-2--5--7---------2--5--4-- ---------------------------------------------------|
-------5---------------2-- ---------------------------------------------------|

Chorus
--------------------------- ----|
--------------------------- ----|
--------------------------- ----|
--7-----7-----7-------6---- -6b-|
--5--7--5--7--5--7--9-4-7-- ----|
-----5-----5-----5--7---5-- ----|
[ Tab from: http://www.guitartabs.cc/tabs/p/pillows/juliet_tab.html ]
Solo
---------------- ---------------------------------------------------------|
-9-10-12-11-9--- ---------------------------------------------------------|
-9--9--9--9-9-9- ---------------------------------------------------------|
---------------- ---------------------------------------------------------|
---------------- ---------------------------------------------------------|
---------------- ---------------------------------------------------------|


-12----10----9----10----12----10----9-10----7----|
----10----10---10----10----10----10------10---10-|
-------------------------------------------------|
-------------------------------------------------|
-------------------------------------------------|
-------------------------------------------------|

-12----10----9----10--------10----9----7----|
----10----10---10----10--10----10---10---10-|
--------------------------------------------|
--------------------------------------------|
--------------------------------------------|
--------------------------------------------|


-12----10----9----10----12----10----9-10----7----|
----10----10---10----10----10----10------10---10-|
-------------------------------------------------|
-------------------------------------------------|
-------------------------------------------------|
-------------------------------------------------|


----9-----------------12--|
-10---10-12-14-10--10-----|
--------------------------|
--------------------------|
--------------------------|
--------------------------|

----------------------------s9-----s10-9-------|
----------------------------s10-12-s10---12-10-|
----------------s11-13-s14---------------------|
--s11b--12-s14--s12----s14---------------------|
--s12b-----s14---------------------------------|
-----------------------------------------------|

----12------------------------------|
-14-----14-12-10-14--14-12-10-------|
-----------------14-----------11-9--|
------------------------------------|
------------------------------------|
------------------------------------|
Comments