Pillows - Hybrid Rainbows Chords & Tabs

 

Hybrid Rainbows Chords & Tabs

Pillows Chords & Tabs

Version: 1 Type: Chords 0 ratings
1 star 2 stars 3 stars 4 stars 5 stars
comments

Hybrid Rainbows Chords

   
************************************************************
************************************************************
I tried to keep the chords as basic as possible
lyrics and translation can be found @ animelyrics.com



FLCL- Furi Kuri Soundtrack
Hybrid Rainbows-The Pillows

Solo:(//G  Em  D  G//)
Solo Tab:
-----3—5—7—3----0(3)—0------2--0-----10-/-----3—5—7—3—0(3)—0—--2—0-----------
---3--------------------3---------3-----/---3----------------3-----3(0)-3(0)-
-0--------------------------------------/-0----------------------------------
----------------------------------------/------------------------------------
----------------------------------------/------------------------------------
----------------------------------------/------------------------------------
G           Em         D            G
Ho tondo shizun deru mitai na mujin to
G               Em      D         G
Chikyuu gini notte nai, namae mo nai
G           Em         D                G 
Kinou wa chikaku made, kibou no fune ga kita kedo
G        Em       D        G
Bokura o mukae ni kitan jyanai

Em        G           D         Em    
Taiyou ni mitou* rete sukoshi kogeta
Em      G           D
PURISIM o hasan de, te o futta kedo

C              G
Can you feel?
        Am               Em
Can you feel that hybrid rainbow?
    C      G       D             C
Kinou ma---de eraba rena katta bokura demo
               G
Ashita o matte ru

Solo: (//G  Em  D  G//)
Solo Tab:
-----3—5—7—3----0(3)—0------2--0-----10-/-----3—5—7—3—0(3)—0—--2—0-----------
---3-------------------3----------3-----/---3----------------3-----3(0)-3(0)-
-0--------------------------------------/-0----------------------------------
----------------------------------------/------------------------------------
----------------------------------------/------------------------------------
----------------------------------------/------------------------------------

G           Em          D         G
Ho tondo shibon deru bokura no hikousen
G       Em            D         G
Chimen o SURE SURE ni ukan deru
[ Tab from: http://www.guitartabs.cc/tabs/p/pillows/hybrid_rainbows_crd.html ]
Em           G       D        Em
Yobi kata mo tomadou iro no sugata
Em              G              D
Tori tachi ni yousha naku tsutsukareru darou



C              G
Can you feel?
        Am               Em
Can you feel that hybrid rainbow?
   C    G
Kitto made
   D               C
Genkai nante konna mon jyanai
       G
Konnan jyanai

Solo: ( //G Em D G//   //C    Em G//)
Solo Tab:
---------0—3-2—5—3-/---------0—3-2—5—3-/-8—7-3---8—7-3-/------0---2---3-/
-0—1-3-------------/-0—1-3-------------/---------------/-3--------------/
-------------------/-------------------/---------------/----------------/
-------------------/-------------------/---------------/----------------/
-------------------/-------------------/---------------/----------------/
-------------------/-------------------/---------------/----------------/

-8—7-3---8—7-3---3/
------------------/
------------------/
------------------/
------------------/
------------------/

C              G
Can you feel?
        Am               Em
Can you feel that hybrid rainbow?
     C  G       Em           D
Koko wa   tojuu nandatte shinjitai
C           G
I can feel.
      Am               Em
I can feel that hybrid rainbow.
    C      G       D             C
Kinou ma---de eraba rena katta bokura demo
               G
Ashita o matte ru



English Translation from animelyrics.com

A deserted island which seems to have mostly sunk
Not found on any globe, not even named
Yesterday the ship we hoped for came close but
It didn't even come to meet us.

We got a little scorched staring longingly into the sun
Holding a prism up, I waved my hand but

Can you feel?
Can you feel that hybrid rainbow?
Even we, who weren't chosen up till yesterday
Are waiting for tomorrow

Our mostly deflated zeppelin is
Skimming just barely over the ground

The look of the colors which defy description
Will probably be mercilessly pecked at by the birds

Can you feel?
Can you feel that hybrid rainbow?
Surely not yet
The limit can't be like this at all
Not like this at all

Can you feel?
Can you feel that hybrid rainbow?
I wanna believe that here is only partway through
I can feel
I can feel that hybrid rainbow
Even we, who weren't chosen up till yesterday
Are holding onto tomorrow


thesilversage1atyahoo
Comments