Pillows - Hybrid Rainbow Chords & Tabs

 

Hybrid Rainbow Chords & Tabs

Pillows Chords & Tabs

Version: 3 Type: Tab 0 ratings
1 star 2 stars 3 stars 4 stars 5 stars
comments

Hybrid Rainbow Tab

   
------------------------------------------------------------------------------- 
The Pillows -Hybrid Rainbow
-------------------------------------------------------------------------------
Tabbed by: Hugo Amarales 
Email: alberamaral@aol.com

| / Slide up
| \ Slide down
| H hammer-on
| P pull-off
| ~ Vibrato
| + Harmonic
| X Mute note

Tuning: Standard (EADGBE)

Intro (Clean)
   G                 C                 D                 G
E|-----------------|-5---7-----------|---------/10-----|--10:------------|
B|-------------8---|-------8---------|-7h8p7-5-----8-8-|-----------------|
G|---------7-------|-----------7h9p7-|-----------------|-----------------|
D|-------5---------|-----------------|-----------------|-----------------|
A|-----------------|-----------------|-----------------|-----------------|
E|-----------------|-----------------|-----------------|-----------------|
   
   G                 C                 D                 G
E|-----------------|-5---7-----------|-----------------|-----------------|
B|-------------8---|-------8---------|-7h8p7-5---------|-----------------|
G|---------7-------|-----------7h9p7-|---------7---4-4-|--7-7-4-4:-------|
D|-------5---------|-----------------|-----------------|-----------------|
A|-----------------|-----------------|-----------------|-----------------|
E|-----------------|-----------------|-----------------|-----------------|
   
Verse 1 (Clean)

  Ho tondo shizun deru mitai na mujin to
  
E|---------------------------------------------------------------------------|
B|---------------------------------------------------------------------------|
G|------------------5-5-5-5-5-5-5--7-7-7-7-7-7-7-----------------------------|
D|---5-5-5-5-5-5-5--5-5-5-5-5-5-5--7-7-7-7-7-7-7--5-5-5-5-5-5-5--------------|
A|---5-5-5-5-5-5-5--3-3-3-3-3-3-3--5-5-5-5-5-5-5--5-5-5-5-5-5-5--------------|
E|---3-3-3-3-3-3-3--------------------------------3-3-3-3-3-3-3--------------|

        
Chikyuu gini notte nai,   namae mo nai
E|---------------------------------------------------------------------------|
B|---------------------------------------------------------------------------|
G|---5-5-5-5-5-5--7-7-7-7-7-7-7----------------------------------------------|
D|---5-5-5-5-5-5--7-7-7-7-7-7-7--5-5-5-5-5-5-5-------------------------------|
A|---3-3-3-3-3-3--5-5-5-5-5-5-5--5-5-5-5-5-5-5-------------------------------|
E|-------------------------------3-3-3-3-3-3-3-------------------------------|
            
Kinou wa chikaku made, kibou no fune ga kita kedo

E|---------------------------------------------------------------------------|
B|---------------------------------------------------------------------------|
G|--5-5-5-5-5-5-5--7-7-7-7-7-7-7---------------------------------------------|
D|--5-5-5-5-5-5-5--7-7-7-7-7-7-7---------------------------------------------|
A|--3-3-3-3-3-3-3--5-5-5-5-5-5-5--5-5-5-5-5-5-5------------------------------|
E|--------------------------------3-3-3-3-3-3-3------------------------------|

Bokura o    mukae ni    kitan jyanai

E|---------------------------------------------------------------------------|
B|---------------------------------------------------------------------------|
G|--5-5-5-5-5-5-5--7-7-7-7-7-7-7---------------------------------------------|
D|--5-5-5-5-5-5-5--7-7-7-7-7-7-7--5-5-5-5-5-5-5------------------------------|
A|--3-3-3-3-3-3-3--5-5-5-5-5-5-5--5-5-5-5-5-5-5------------------------------|
E|--------------------------------3-3-3-3-3-3-3------------------------------|

Pre-Chorus (Clean)
    
Taiyou ni  mitou* rete sukoshi kogeta  
E|---------------------------------------------------------------------------|
B|---------------------------------------------------------------------------|
G|--5-5-5-5-5-5-5-----------------2-2-2-2-2-2-2------------------------------|
D|--5-5-5-5-5-5-5--5-5-5-5-5-5-5--2-2-2-2-2-2-2--2-2-2-2-2-2-2---------------|
A|--3-3-3-3-3-3-3--5-5-5-5-5-5-5--0-0-0-0-0-0-0--2-2-2-2-2-2-2---------------|
E|-----------------3-3-3-3-3-3-3-----------------0-0-0-0-0-0-0---------------|
  

   PURISIM o hasan de te o futta kedo

E|---------------------------------------------------------------------------|
B|---------------------------------------------------------------------------|
G|---5-5-5-5-5-5-5-----------------7-7-7-7-7-7-7-----------------------------|
D|---5-5-5-5-5-5-5--5-5-5-5-5-5-5--7-7-7-7-7-7-7-----------------------------|
A|---3-3-3-3-3-3-3--5-5-5-5-5-5-5--5-5-5-5-5-5-5-----------------------------|
E|------------------3-3-3-3-3-3-3--------------------------------------------|




Chorus (Distortion)

Can you feel?                 Can you feel that hybrid rainbow?         

E|---------------------------------------------------------------------------|
B|---------------------------------------------------------------------------|
G|--5-5-5-5-5-5-5-----------------2-2-2-2-2-2-2------------------------------|
D|--5-5-5-5-5-5-5--5-5-5-5-5-5-5--2-2-2-2-2-2-2--2-2-2-2-2-2-2---------------|
A|--3-3-3-3-3-3-3--5-5-5-5-5-5-5--0-0-0-0-0-0-0--2-2-2-2-2-2-2---------------|
E|-----------------3-3-3-3-3-3-3-----------------0-0-0-0-0-0-0---------------|

Kinou made eraba rena katta bokura demo

E|---------------------------------------------------------------------------|
B|---------------------------------------------------------------------------|
G|--5-5-5-5-5-5-5-----------------7-7-7-7-7-7-7--5-5-5-5-5-5-5---------------|
D|--5-5-5-5-5-5-5--5-5-5-5-5-5-5--7-7-7-7-7-7-7--5-5-5-5-5-5-5---------------|
A|--3-3-3-3-3-3-3--5-5-5-5-5-5-5--5-5-5-5-5-5-5--3-3-3-3-3-3-3---------------|
E|-----------------3-3-3-3-3-3-3---------------------------------------------|

Verse 2 (Clean)


 Ho tondo shibon deru bokura no hikousen

E|---------------------------------------------------------------------------|
B|---------------------------------------------------------------------------|
G|--5-5-5-5-5-5-5--7-7-7-7-7-7-7---------------------------------------------|
D|--5-5-5-5-5-5-5--7-7-7-7-7-7-7--5-5-5-5-5-5-5------------------------------|
A|--3-3-3-3-3-3-3--5-5-5-5-5-5-5--5-5-5-5-5-5-5------------------------------|
E|--------------------------------3-3-3-3-3-3-3------------------------------|

Chimen o SURE SURE ni   ukan deru

E|---------------------------------------------------------------------------|
B|---------------------------------------------------------------------------|
G|---5-5-5-5-5-5-5-5--7-7-7-7-7-7-7------------------------------------------|
D|---5-5-5-5-5-5-5-5--7-7-7-7-7-7-7--5-5-5-5-5-5-5---------------------------|
A|---3-3-3-3-3-3-3-3--5-5-5-5-5-5-5--5-5-5-5-5-5-5---------------------------|
E|-----------------------------------3-3-3-3-3-3-3---------------------------|

Pre-Verse (Clean)
[ Tab from: http://www.guitartabs.cc/tabs/p/pillows/hybrid_rainbow_tab_ver_3.html ]
   G                 C                 D                 G
E|-----------------|-5---7-----------|---------/10-----|--10:------------|
B|-------------8---|-------8---------|-7h8p7-5-----8-8-|-----------------|
G|---------7-------|-----------7h9p7-|-----------------|-----------------|
D|-------5---------|-----------------|-----------------|-----------------|
A|-----------------|-----------------|-----------------|-----------------|
E|-----------------|-----------------|-----------------|-----------------|
   
   G                 C                 D                 G
E|-----------------|-5---7-----------|-----------------|-----------------|
B|-------------8---|-------8---------|-7h8p7-5---------|-----------------|
G|---------7-------|-----------7h9p7-|---------7---4-4-|--7-7-4-4:-------|
D|-------5---------|-----------------|-----------------|-----------------|
A|-----------------|-----------------|-----------------|-----------------|
E|-----------------|-----------------|-----------------|-----------------|


Pre-Chorus (Clean)

Yobi kata mo tomadou iro no sugata

E|---------------------------------------------------------------------------|
B|---------------------------------------------------------------------------|
G|--5-5-5-5-5-5-5-----------------2-2-2-2-2-2-2------------------------------|
D|--5-5-5-5-5-5-5--5-5-5-5-5-5-5--2-2-2-2-2-2-2--2-2-2-2-2-2-2---------------|
A|--3-3-3-3-3-3-3--5-5-5-5-5-5-5--0-0-0-0-0-0-0--2-2-2-2-2-2-2---------------|
E|-----------------3-3-3-3-3-3-3-----------------0-0-0-0-0-0-0---------------|

Tori tachi ni yousha naku tsutsukareru darou

E|---------------------------------------------------------------------------|
B|---------------------------------------------------------------------------|
G|---5-5-5-5-5-5-5------------------7-7-7-7-7-7-7----------------------------|
D|---5-5-5-5-5-5-5---5-5-5-5-5-5-5--7-7-7-7-7-7-7----------------------------|
A|---3-3-3-3-3-3-3---5-5-5-5-5-5-5--5-5-5-5-5-5-5----------------------------|
E|-------------------3-3-3-3-3-3-3-------------------------------------------|

Chorus (Distortion)

Can you feel?                    Can you feel that hybrid rainbow?

E|---------------------------------------------------------------------------|
B|---------------------------------------------------------------------------|
G|--5-5-5-5-5-5-5-----------------2-2-2-2-2-2-2------------------------------|
D|--5-5-5-5-5-5-5--5-5-5-5-5-5-5--2-2-2-2-2-2-2--2-2-2-2-2-2-2---------------|
A|--3-3-3-3-3-3-3--5-5-5-5-5-5-5--0-0-0-0-0-0-0--2-2-2-2-2-2-2---------------|
E|-----------------3-3-3-3-3-3-3-----------------0-0-0-0-0-0-0---------------|

Kitto made Genkai nante konna mon jyanai

E|---------------------------------------------------------------------------|
B|---------------------------------------------------------------------------|
G|--5-5-5-5-5-5-5-----------------7-7-7-7-7-7-7--5-5-5-5-5-5-5---------------|
D|--5-5-5-5-5-5-5--5-5-5-5-5-5-5--7-7-7-7-7-7-7--5-5-5-5-5-5-5---------------|
A|--3-3-3-3-3-3-3--5-5-5-5-5-5-5--5-5-5-5-5-5-5--3-3-3-3-3-3-3---------------|
E|-----------------3-3-3-3-3-3-3---------------------------------------------|
 Bridge (Clean)

Konnan jyanai

E|---------------------------------------------------------------------------|
B|---------------------------------------------------------------------------|
G|---------------------------------------------------------------------------|
D|---5-----------------------------------------------------------------------|
A|---5-----------------------------------------------------------------------|
E|---3-----------------------------------------------------------------------|

Solo (Distortion)

   C                                   G
E|-----------------|-----------------|-----------------|-----------------|
B|-----------------|-5-----8-----7---|-10----8:\-------|-----------------|
G|-4-----5-----7---|-----------------|-----------------|-----------------|
D|-----------------|-----------------|-----------------|-----------------|
A|-----------------|-----------------|-----------------|-----------------|
E|-----------------|-----------------|-----------------|-----------------|
      C                                   G
E|-----------------|-----------------|-----------------|------7-----7----|
B|-----------------|-5-----8-----7---|-10----8---------|-----------------|
G|-4-----5-----7---|-----------------|-----------------|----7-----7------|
D|-----------------|-----------------|-----------------|-----------------|
A|-----------------|-----------------|-----------------|-----------------|
E|-----------------|-----------------|-----------------|-----------------|
   C                                   G
E|-8-----7---------|-8-----7---------|-----------------|---8----7--------|
B|-----------8-----|-----------8-----|-----------------|------------8----|
G|-----------------|-----------------|-6/9-6/11-6/12---|-----------------|
D|-----------------|-----------------|-----------------|-----------------|
A|-----------------|-----------------|-----------------|-----------------|
E|-----------------|-----------------|-----------------|-----------------|
      C                                   G
E|-8-----7---------|---------------10|-----------------|-----------------|
B|-----------8-----|-----------------|-----------------|-----------------|
G|-----------------|-----------------|-----------------|-----------------|
D|-----------------|-----------------|-----------------|-----------------|
A|-----------------|-----------------|-----------------|-----------------|
E|-----------------|-----------------|-----------------|-----------------|
Chorus (Dist.)
    
Can you feel?             Can you feel that hybrid rainbow?      

E|---------------------------------------------------------------------------|
B|---------------------------------------------------------------------------|
G|---5-5-5-5-5-5-----------------2-2-2-2-2-2-2-------------------------------|
D|---5-5-5-5-5-5--5-5-5-5-5-5-5--2-2-2-2-2-2-2--2-2-2-2-2-2-2----------------|
A|---3-3-3-3-3-3--5-5-5-5-5-5-5--0-0-0-0-0-0-0--2-2-2-2-2-2-2----------------|
E|----------------3-3-3-3-3-3-3-----------------0-0-0-0-0-0-0----------------|

         Koko wa         tojuu nandatte shinjitai
      
E|---------------------------------------------------------------------------|
B|---------------------------------------------------------------------------|
G|---5-5-5-5-5-5-----------------2-2-2-2-2-2-2-------------------------------|
D|---5-5-5-5-5-5--5-5-5-5-5-5-5--2-2-2-2-2-2-2--2-2-2-2-2-2-2----------------|
A|---3-3-3-3-3-3--5-5-5-5-5-5-5--0-0-0-0-0-0-0--2-2-2-2-2-2-2----------------|
E|----------------3-3-3-3-3-3-3-----------------0-0-0-0-0-0-0----------------|

    I can feel.            I can feel that hybrid rainbow.      

E|---------------------------------------------------------------------------|
B|---------------------------------------------------------------------------|
G|---5-5-5-5-5-5-----------------2-2-2-2-2-2-2-------------------------------|
D|---5-5-5-5-5-5--5-5-5-5-5-5-5--2-2-2-2-2-2-2--2-2-2-2-2-2-2----------------|
A|---3-3-3-3-3-3--5-5-5-5-5-5-5--0-0-0-0-0-0-0--2-2-2-2-2-2-2----------------|
E|----------------3-3-3-3-3-3-3-----------------0-0-0-0-0-0-0----------------|

  Kinou made      eraba rena katta bokura demo          Ashita o matte ru

E|---------------------------------------------------------------------------|
B|---------------------------------------------------------------------------|
G|--5-5-5-5-5-5-5-----------------7-7-7-7-7-7-7--5-5-5-5-5-5-5---------------|
D|--5-5-5-5-5-5-5--5-5-5-5-5-5-5--7-7-7-7-7-7-7--5-5-5-5-5-5-5-5:-----------|
A|--3-3-3-3-3-3-3--5-5-5-5-5-5-5--5-5-5-5-5-5-5--3-3-3-3-3-3-3-5:-----------|
E|-----------------3-3-3-3-3-3-3--------------------------------3:-----------|

--------------------------------------------------------------------------||
Comments