Pillows - Hybrid Rainbow Chords & Tabs

 

Hybrid Rainbow Chords & Tabs

Pillows Chords & Tabs

Version: 1 Type: Bass Tab 0 ratings
1 star 2 stars 3 stars 4 stars 5 stars
comments

Hybrid Rainbow Bass Tab

The Pillows
Hybrid Rainbow
Standard tuning
Tabbed by Alex Fragd (mavrick_45@hotmail.com)



G------------------------------------------------------------
D------------------------------------------------------------
A----------2222---3333---222-3---5555---3333-----------------
E---3333---------------------------------------3333---3333---

G-----------------------------------------------------------
D-----------------------------------------------------------
A----------5555---3333---222-3---55555----------------------
E---3333---------------------------------0-22-3333---3333---


G------------------------------------------------------------
D------------------------------------------------------------
A----------2222---3333---222-3---5555---3333-----------------
E---3333---------------------------------------3333---3333---

G-----------------------------------------------------------
D-----------------------------------------------------------
A----------5555---3333---222-3---55555----------------------
E---3333---------------------------------0-22-3333---3333---



G------------------------------------------------------------
D------------------------------------------------------------
A----------2222---3333---222-3---5555---3333-----------------
E---3333---------------------------------------3333---3333---

G-----------------------------------------------------------
D-----------------------------------------------------------
A----------5555---3333---222-3---55555----------------------
E---3333---------------------------------0-22-3333---3333---



G---------------------------------------------------
D---------------------------------------2222-2222---
A---3333-3333---------------------------------------
E---------------3333-3333---5555-5555---------------

	G------------------------------------------------
	D------------------------------------------------
	A---3333-3333--------------5555-5555-5555-5555---
	E--------------3333-3333-------------------------


G---------------------------------------------------
D---------------------------------------------------
A---3333-3333---------------------------------------
E---------------3333-3333---5555-5555---0000-0000---

	G---------------------------------------------------
	D---------------------------------------------------
	A---3333-3333---------------5555-5555---3333-3333---
	E---------------3333-3333---------------------------


G------------------------------------------------------------
D------------------------------------------------------------
A----------2222---3333---222-3---5555---3333-----------------
E---3333---------------------------------------3333---3333---
[ Tab from: http://www.guitartabs.cc/tabs/p/pillows/hybrid_rainbow_btab.html ]
G-----------------------------------------------------------
D-----------------------------------------------------------
A----------5555---3333---222-3---55555----------------------
E---3333---------------------------------0-22-3333---3333---

G------------------------------------------------------------
D------------------------------------------------------------
A----------2222---3333---222-3---5555---3333-----------------
E---3333---------------------------------------3333---3333---

G-----------------------------------------------------------
D-----------------------------------------------------------
A----------5555---3333---222-3---55555----------------------
E---3333---------------------------------0-22-3333---3333---


G---------------------------------------------------
D---------------------------------------2222-2222---
A---3333-3333---------------------------------------
E---------------3333-3333---5555-5555---------------

	G------------------------------------------------
	D------------------------------------------------
	A---3333-3333--------------5555-5555-5555-5555---
	E--------------3333-3333-------------------------

G---------------------------------------------------
D---------------------------------------------------
A---3333-3333---------------------------------------
E---------------3333-3333---5555-5555---0000-0000---

	G---------------------------------------------------
	D---------------------------------------------------
	A---3333-3333---------------5555-5555---3333-3333---
	E---------------3333-3333---------------------------


G-------------------------------
D-------------------------------
A-------------------------------
E---3333-3333-33/15-15-15-15\---

G-----------------------------------------------
D----------------------------------------------- (X4)
A---3333-3333-3333-3333-------------------------
E-------------------------3333-3333-3333-3333---

G---------------------------------------------------
D---------------------------------------------------
A---3333-3333---------------------------------------
E---------------3333-3333---5555-5555---0000-0000---

G---------------------------------------------------
D---------------------------------------------------
A---3333-3333---------------------------------------
E---------------3333-3333---5555-5555---0000-0000---

G---------------------------------------------------
D---------------------------------------------------
A---3333-3333---------------------------------------
E---------------3333-3333---5555-5555---0000-0000---

	G---------------------------------------------------
	D---------------------------------------------------
	A---3333-3333---------------5555-5555---3333-3333---
	E---------------3333-3333---------------------------


E---3~---
Comments