Pillows - Funny Bunny Chords & Tabs

 

Funny Bunny Chords & Tabs

Pillows Chords & Tabs

Version: 1 Type: Bass Tab

Funny Bunny Bass Tab

Pillows - Funny Bunny
tabed by emptee 


Verse:
G--------------------------------------------------|
D---4------4---------5-5-4----4--------------------|
A-----5------5-7---7--------7---5------------------|
E-------5-5---------------------- 5-5-3-2-0--0-2-3-|

G---------------------------------------------------|
D-4------------------5-5-4----4---------------------|
A---5--5-5--5--7---7--------7---5-------------------|
E----------5---------------------- 5-5-3-2-0--0-2-3-|


Bridge:
[ Tab from: http://www.guitartabs.cc/tabs/p/pillows/funny_bunny_btab.html ]
G---------------------------------------------------------------|
D---------------------------------------------------------------|
A--------------------22222222-----------------------------------|
E---33333333-22222222--------33333333-55555555-33333333-5-3-2-0-|


Bridge +

G-----------------------------------|
D-----------------------------------|
A-----------------------------------|
E--5-5-5-5-7-7-7-7--9-9-9-9-7-7-7-7-|

Chorus:

G-----------------------------------------------------------|
D-----------------------------------------------------------|
A---------5-5-5-5---------2-2-2-0---------5-5-2-2---------5-|
E-3-3-5-5---------3-3-2-2---------3-3-5-5---------3-3-5-5---|


the way to play it:
Verse x3
Bridge x1
Verse x1
Bridge x1
Chorus x1
Play the verese during the solo
Bridge x1 (add the Bridge + before the chorus)
Chorus x2