Pillows - Come Down Chords & Tabs

 

Come Down Chords & Tabs

Pillows Chords & Tabs

Version: 1 Type: Tab 0 ratings
1 star 2 stars 3 stars 4 stars 5 stars
comments

Come Down Tab

Band:   Pillows
Song:   Come Down
Tab:    Michel da Cruz

Part 1

e|-------------------------------------------|
b|-------------------------------------------|
g|-------------------------------------------|
D|-------------------------------------------|
A|------9----------7--------6--------5-------|
E|--7-7---7----5-5---5----4---4----3---3-----|

Part 2
[ Tab from: http://www.guitartabs.cc/tabs/p/pillows/come_down_tab.html ]
e|-------------------------------------------|
b|-------------------------------------------|
g|-------------------------------------------|
D|-------------------------------------------|
A|--999----777----666----555-----------------|
E|--777----555----444----333-----------------|

Part 3

e|-------------------------------------------|
b|-------------------------------------------|
g|-------------------------------------------|
D|-----------------2-------------------------|
A|--4----6----9----2----4----6----9----------|
E|--2----4----7---------2----4----7----------|
    |    |    |    |    |    |    |
    8x   8x   8x   8x   8x   8x   16x


Order to play

Part 1 ....6x
Part 2 ....4x
Part 3 
Part 1 
Part 2
Part 1
Part 2
Part 1
Part 2
Part 1
Part 2
Part 1 ....3x
Part 2
Part 3
Part 2 ....9x
Comments