Pillows - Come Down Chords & Tabs

 

Come Down Chords & Tabs

Pillows Chords & Tabs

Version: 2 Type: Bass Tab 0 ratings
1 star 2 stars 3 stars 4 stars 5 stars
comments

Come Down Bass Tab

The Pillows
Come Down (best version)
Standard tuning
Tabbed by Andres Morales (Snazy30@yahoo.com)


Main Riff (GUITAR RIFF)
G---------12---------10------9-------8---|
D---10-10----10--8-8----8--7---7-6-6-----|
A----------------------------------------|
E----------------------------------------|

[ Tab from: http://www.guitartabs.cc/tabs/p/pillows/come_down_btab_ver_2.html ]
2nd Riff
G------------------------------|
D------------------------------|
A---3333---1111---000----------|
E-----------------------4-44---|


Chorus
G---------------------------------------------------------------------------|
D---------------------------------------------------------------------------|
A---------------------------------------------------------------------------|
E---3-333333---5-555555---6-666666---1-111111---3-333333---5-555555----6>---|
Comments