Pillows - Carnival Chords & Tabs

 

Carnival Chords & Tabs

Pillows Chords & Tabs

Version: 1 Type: Tab 0 ratings
1 star 2 stars 3 stars 4 stars 5 stars
comments

Carnival Tab

Song: Carnival (FLCL Version)   (Track 4)
Artist: The Pillows
Album: FLCL OST-1 Addict
Tabbed By: Shinkoshi Raigaa

Guitar 1 or 2
   Intro
e|-------------------------------------------------||
B|-------------------------------------------------||
G|-------------------------------------------------||
D|-9-9-9-9-9--7/10--12\----------------------------||
A|-7-7-7-7-7--5/8---10\---7/10--9/12\9--7\5/7\5----||
E|------------------------5/8---7/10\7--5\3/5\3----|| (x6)
                                                     
Guitar 1                                                     
   Bridge ...I guess (figure it out/listen to song)                          
e|---|---|---|---|---|---|---||
B|---|---|---|---|---|---|---||
G|-5-|---|-7-|-5-|-5-|---|-7-||
D|-5-|-5-|-7-|-5-|-5-|-5-|-7-||
A|-3-|-5-|-5-|-3-|-3-|-5-|-5-||
E|---|-3-|---|---|---|-3-|---||
  (x8)(x8)(x8)(x8)(x8)(x8)(x8)
          
Guitar 2 (lead guitar?)                                                    
   Bridge
e|-----------------------|------------------------|-----------------------|
B|-----------------------|------------------------|-----------------------|
G|-----------------------|------------------------|-----------------------|
D|-9----10----12----9-10-|----12----9----10----12-|----9----10----12-9-10-|
A|---10----10----10------|-10----10---10----10----|-10---10----10---------|
E|-----------------------|------------------------|-----------------------| (x2) 
   and this...
e|------------------------||
B|------------------------||
G|------------------------||
D|----12----10----9----10-||
A|-10----10----10---10----||
E|------------------------||

Guitar 1
  Funky Part
e|------||
B|------||
G|------||
D|-7----||
A|-7----||
E|-5----||
  PM(x28)
[ Tab from: http://www.guitartabs.cc/tabs/p/pillows/carnival_tab.html ]
Guitar 2
  Funky Part
e|---------------------------------------------------------------|
B|---------------------------------------------------------------|
G|---------------------------------------------------------------|
D|----------------------------0-0-0-0----------------------------|
A|----------3-3-3-3--2-2-2-2-----------3-3-3-3-----------3-3-3-3-|
E|-5-5-5-5--------------------------------------5-5-5-5--5-5-5-5-|

Guitar 1 or 2
  Another Funky Part (listen to the song! It helps)
e|---|---|-----|---|-----||
B|---|---|-----|---|-----||
G|-5-|---|-4/5-|---|-4/5-||
D|-5-|-5-|-4/5-|-5-|-4/5-||
A|-3-|-5-|-2/3-|-5-|-2/3-||
E|---|-3-|-----|-3-|-----||
 (x3) (x6) (x8) (x6) (x8)

Guitar 2
  solo thingy (i guess?)
e|---------------------------------------------------------|
B|---------------------------------------------------------|
G|---------------------------------------------------------|
D|------9------------9------------------9-10--9-10--9-10---|
A|-7-10---10----8-10---10----7-7/10---------10----10----10-|
E|---------------------------------------------------------|

Guitar 1                               
  Solo thingy
e|-----------------------------------------------|
B|-----------------------------------------------|
G|-------------------5-5-5-5---------------------|
D|-5-5-5-5--7-7-7-7--5-5-5-5---------------------|
A|-5-5-5-5--7-7-7-7--3-3-3-3---------------------|
E|-3-3-3-3--5-5-5-5------------------------------|

Guitar 1 or 2
   Outro - Distortion
e|-------------------------------------------------||
B|-------------------------------------------------||
G|-------------------------------------------------||
D|-9-9-9-9-9--7/10--12\----------------------------||
A|-7-7-7-7-7--5/8---10\---7/10--9-9-9---7\5/7\5----||
E|------------------------5/8---7-7-7---5\3/5\3----|| (x2)
Comments