Pillows - Calvero Chords & Tabs

 

Calvero Chords & Tabs

Pillows Chords & Tabs

Version: 1 Type: Tab 0 ratings
1 star 2 stars 3 stars 4 stars 5 stars
comments

Calvero Tab

   
The Pillows
Song: Calvero
Album: Smile
By: _KeitarO_

					FOREVER, PILLOWS!

Bass intro (on guitar)

e|----------------------------------------------------------------------------------------------------------|
B|----------------------------------------------------------------------------------------------------------|
G|----------------------------------------------------------------------------------------------------------|
D|-----2---------2--------------------2:---------------------2---3:----2--------------------2:--------------|
A|-3-5---5-3:-------2-3-5:----2-3-5-3-x-----5--0-2-3:----3-5---5-x--------2-3-5:----2-3-5-3-x-----5--0-2-3:-|
E|---------1:-------3-3-3:------------3:----3--3-3-3:------------1:-------3-3-3:----3-3-3-3-3:-------3-3-3:-|

1st verse:

    |C|     |F|     |C|     |G|    |F| |Em||Am| |D| |F|     |Fm|    |G|     |G|

e|---0---|---1---|---0---|---3---|---1-|-0-|-0-|-2-|-1---|---1---|---3---|---3---|
B|---1---|---1---|---1---|---3---|---1-|-0-|-1-|-3-|-1---|---1---|---3---|---3---|
G|---0---|---2---|---0---|---0---|---2-|-0-|-2-|-2-|-2---|---1---|---0---|---0---|
D|---2---|---3---|---2---|---0---|---3-|-2-|-2-|-0-|-3---|---3---|---0---|---0---|
A|---3---|---3---|---3---|---2---|---3-|-2-|-0-|---|-3---|---3---|---2---|---2---|
E|-------|---1---|-------|---3---|---1-|-0-|---|---|-1---|---1---|---3---|---3---|

2nd verse:
[ Tab from: http://www.guitartabs.cc/tabs/p/pillows/calvero_tab.html ]
e|----------------------------------------------------------------------------|
B|----------------------------------------------------------------------------|
G|-------------------------SAME AS FIRST ONE----------------------------------|
D|----------------------------------------------------------------------------|
A|----------------------------------------------------------------------------|
E|----------------------------------------------------------------------------|


Solo:

e|-------------------------------------------------------------------------------------7:------------------------|
B|---------------------------------------------------------------------6-5-6-8--9--8-6-0:------------------------|
G|-------------------------------------------------5-7-7b9r7-5---5-7-5-7-7-7-9-10--9-7-7:----777-----------------|
D|-------------------------------------------777-7-------------7----------------------------------999--555-------|
A|-3--3-2-3-5-3--3-2-3-5-5/7-7-5-7/10-10--------------------------------------------------------------------555\-|
E|---------------------------------------------------------------------------------------------------------------|


While he makes the solo the chords are the same...

The only variation is in the end. instead of ending with "G", it will be a "C"

That's it...
I've started tabing that unknown strument in the end of the song, with the water sounding...
tell me if you are interested

any particular comment?
andre-petro@hotmail.com

04/04/05
Comments