Pillows - Beautiful Morning With You Chords & Tabs

 

Beautiful Morning With You Chords & Tabs

Pillows Chords & Tabs

Version: 1 Type: Tab 0 ratings
1 star 2 stars 3 stars 4 stars 5 stars
comments

Beautiful Morning With You Tab

http://www.pillows.gr.jp/
origin---Japanese pop
FLCL anime soundtrack

#------------------------PLEASE NOTE------------------------#
#This file is the author's own work and represents their    #
#interpretation of the song. You may only use this file for #
#private study, scholarship, or research.                   #
#-----------------------------------------------------------#

Song        : Beautiful Morning with you
Performed by: The Pillows
Tabbed by   : Kyosuke

I got this song off the FLCL soundtrack that I downloaded. I'm not
sure if it's The Pillows or not, but since they did most if not
all of the FLCL soundtrack, I'm going to assume it's them. This song
has no vocals, and it about 1 minute and 36 seconds long. That's also
about the time it took me to tab it. So if there's mistakes, just
send me an email and I'll fix it.

e----------------------|
B----------------------|
G-------2-2------------|  (repeat 2 1/2 times)
D--5-5--2-2--4-4--4-4--|
A--5-5--0-0--4-4--4-4--|
E--3-3-------2-2--2-2--|
[ Tab from: http://www.guitartabs.cc/tabs/p/pillows/beautiful_morning_with_you_tab.html ]
Then he plays this a few times:
e-----
B-----
G-----
D--5--
A--5--
E--3--

Then he goes into the power riff:
e--------------|
B--------------|
G--------------|
D--4-5-9-7-4-5-|
A--4-5-9-7-4-5-| (he plays the last chords a few times before repeat)
E--2-3-7-5-2-3-|

The next variation:
e----------|
B----------|
G----------|
D--5-7-4-5-| (repeat 2 1/2 times)
A--5-7-4-5-|
E--3-5-2-3-|

Flask sent in this correction to the below. (Thanks!)
Ending part:
e----------------------------------------------------------------------|
B----------------------------------------------------------------------|
G-------------------7-7-7-7-7-7-7-7-------------------7-7-7-7-7-7-7-7--|
D--5-5-5-5-5-5-5-7-7-7-7-7-7-7-7-2-2-2-2-2-2-2-7-7-7-7-7-7-7-7---------|
A--5-5-5-5-5-5-5-5-5-5-5-5-5-5-5-2-2-2-2-2-2-2-5-5-5-5-5-5-5-5---------|
E--3-3-3-3-3-3-3----------------------0-0-0-0-0-0-0--------------------|


I think he just repeats that. Until the end of the song.
Just email me any questions, comments, or corrections.
KYOSUKE
kyosuke_66@yahoo.com
Comments