Pillows - Advice Chords & Tabs

 

Advice Chords & Tabs

Pillows Chords & Tabs

Version: 1 Type: Bass Tab 0 ratings
1 star 2 stars 3 stars 4 stars 5 stars
comments

Advice Bass Tab

The Pillows
Advice
Standard Tuning
Tabbed by Alex Fragd (mavrick_45)
Mavrick_45@sugarray.com


Part one 00:12
G-------------------------------------------
D-------------------------------------------
A-----1-1---------1-1---------1-1-----------
E---1-----1-3-3-1-----1-3-3-1-----1-3-3-3---

   G-------------------
   D-------------------
   A---4-3--4-3--4-3---
   E-------------------

[ Tab from: http://www.guitartabs.cc/tabs/p/pillows/advice_btab.html ]
Part two X5
G-----------------------------------------
D-----------------------------------------
A---1-1---------1-1---------1-1-----------
E-------1-3-3-1-----1-3-3-1-----1-3-3-3---


   G-------------------
   D-------------------
   A---4-3--4-3--4-3---
   E-------------------



Chorus X2
G-----------------------------------/---optional---
D-----------------------------------/--------------
A-------------00000000---11111111---/---4-4--3-3---
E---11111111------------------------/--------------


Part two X6
Chorus X2
Part two X4
Chorus X4 
End on A-1
Comments