Pillar - You Should Know Chords & Tabs

 

You Should Know Chords & Tabs

Pillar Chords & Tabs

Version: 1 Type: Tab 0 ratings
1 star 2 stars 3 stars 4 stars 5 stars
comments

You Should Know Tab

Standard Tuning  

  Verse
e|-------------------------------------------------------------------------|
B|-------------------------------------------------------------------------|
G|-----333-----------------------------------------------------------------|
D|-2-2-333-x-x-----------2-2--2-2-2--2-2-2---------------------------------|
A|-2-2-111-x-x-2---------2-2--2-2-2--2-2-2---------------------------------|
E|-0-0-111-x-x-0-3p0-----0-0--0-0-0--0-0-0---------------------------------|

  Verse Continued
e|-------------------------------------------------------------------------|
B|-8--8--8--8--8--8--8----8------8-----------------------------------------|
G|-10-10-10-10-10-10-10---10^~~~-10^~~~------------------------------------|
D|-------------------------------------------------------------------------|
A|-------------------------------------------------------------------------|
E|-------------------------------------------------------------------------|
[ Tab from: http://www.guitartabs.cc/tabs/p/pillar/you_should_know_tab.html ]
  Chorus						     End Chorus
e|--------------------------------------------|----------------------------|
B|--------------------------------------------|----------------------------|
G|------------6-6-6-6-6-----------------------|----------------------------|
D|--2-2-2-2-2-6-6-6-6-6-6-6-6-6-6-4-4---------|----------------------------|
A|--2-2-2-2-2-4-4-4-4-4-6-6-6-6-6-4-4-2-------|----------------------------|
E|--0-0-0-0-0-----------4-4-4-4-4-2-2-0-3-3-0-|-0-3-4-0--6-4-0--0-3-0-3-4-6|

  Interlude
e|-------------------------------------------------------------------------|
B|-------------------------------------------------------------------------|
G|-------------------------------------------------------------------------|
D|--------------------------------------5-<7>-5----------------------------|
A|----------------------------------3-5---------5--------------------------|
E|-0-3-4-0--6-4-0--0-3--0-3-4-6-0-4----------------------------------------|

  Break Down
e|-------------------------------------------------------------------------|
B|-------------------------------------------------------------------------|
G|---6---------------6-----------------------------------------------------|
D|-2-6-6-4-4-4-----2-6-6-4-------------------------------------------------|
A|-2-4-6-4-4-4-----2-4-6-4-5-4-0-------------------------------------------|
E|-0---4-2-2-2-3-0-0---4-2-------4-3-0-------------------------------------|
Comments