Pillar - You Should Know Chords & Tabs

 

You Should Know Chords & Tabs

Pillar Chords & Tabs

Version: 1 Type: Bass Tab 0 ratings
1 star 2 stars 3 stars 4 stars 5 stars
comments

You Should Know Bass Tab

   
what up guys. my name is johnathan and im down with Pillar.
my band and i are goin to Baton Rouge to play in a all day concert thing.
so i had to tab out the bass part. hope it satisfies. not 100% accurate but
pretty dang close. check it out!!!

Standard tuning (E,A,D,G)

Pillar - You Should Know (Bass Intro)

for Seth and baton rouge band


G--------------12------------------9--------------12----------------9------
D----------11-----11----------------7----------11--11---------------7-----
A---9s10------------10--10s7---7-----7----9s10---------10---10s77----7----
E--------------------------------------------------------------------------

[ Tab from: http://www.guitartabs.cc/tabs/p/pillar/you_should_know_btab.html ]
                                                            Harmonic note
G------------12-------------------9---------------12------------(5)-----
D--------11-----11-----------------7-----------11---11------------------
A---9s10------------10--9h10--7-----7----9s10----------109s10s/--------
E-----------------------------------------------------------------------
                                                                 ^
 (That means that you slide down to              )
 (   the 5th fret but don't play the 5th fret.   )
 (Just come off the string around the 5th fret   )
 (  then hit that harmonic. Oh and yes that is   )
 (   Supposed to be a slide from 9 to 10 not     )
 (   A hammer-on like it has been.               )
Comments