Pillar - Stay Up Chords & Tabs

 

Stay Up Chords & Tabs

Pillar Chords & Tabs

Version: 1 Type: Tab 0 ratings
1 star 2 stars 3 stars 4 stars 5 stars
comments

Stay Up Tab

   
drop d tuning

Intro/Verse
d----10-----9-----7--0----10-----9-----7--0---
a-00---12-0--10-0--9---00---12-0--10-0--9---00
D---------------------------------------------

Pre Chorus
E-----------------|
B-----------------|
G-----------------|
D-3-3-3-3-5-5-6-6-|
A-3-3-3-3-5-5-6-6-|
D-3-3-3-3-5-5-6-6-|

Chorus
E-------------------------------------------------------------------------------
B-------------------------------------------------------------------------------
G-------------------------------------------------------------------------12-12-
D-7-5-7-0-5-7-10-3-2-3-2-0-0-0-0-2-3-2-5-5--7-5-7-0-5-7-10-5-12-0-5-7-5-7-12-12-
A-7-5-7-0-5-7-10-3-2-3-2-0-0-0-0-2-3-2-5-5--7-5-7-0-5-7-10-5-12-0-5-7-5-7-10-10-
D-7-5-7-0-5-7-10-3-2h3p2p0-0-0-0-2h3p2-5-5--7-5-7-0-5-7-10-5-12-0-5-7-5-7-------

E----------|
B----------|
G-12\9-9\7-|
D-12\9-9\7-|
A-10\7-7\5-|
D----------|
[ Tab from: http://www.guitartabs.cc/tabs/p/pillar/stay_up_tab.html ]
Pre Verse
E-------------------------------|
B-------------------------------|
G-------------------------------|
D-7-0-7-0-7-0-7-0-7-0-7-0-7-0-5-|
A-7-0-7-0-7-0-7-0-7-0-7-0-7-0-5-|
D-7-0-7-0-7-0-7-0-7-0-7-0-7-0-5-|

Verse
Pre Chorus 

Bridge
E-----------------------------------------------------|
B-----------------------------------------------------|
G-----------------------------------------------------|
D-7-0-7--7-7--7-0-7--7-7---12--7-0-7--7-7--7-0-7--7-7-|
A-7-0-7--7-7--7-0-7--7-7---12--7-0-7--7-7--7-0-7--7-7-|
D-7-0-7--7-7--7-0-7--7-7---12--7-0-7--7-7--7-0-7--7-7-|

Pre Chorus
Chorus
pre verse

Bridge 2
E-----------------------------------------------------|
B-12-10-8-12-8h10p8----------12-8h10p8h10/13-12b-8-10-|
G-------------------9---------------------------------|
D---------------------9----7--------------------------|
A-----------------------10----------------------------|
D-----------------------------------------------------|
chorus
pre verse
Comments