Pillar - Original Superman Chords & Tabs

 

Original Superman Chords & Tabs

Pillar Chords & Tabs

Version: 1 Type: Bass Tab 0 ratings
1 star 2 stars 3 stars 4 stars 5 stars
comments

Original Superman Bass Tab

   
Song: Original Superman
Artist: Pillar
2000 Flicker Records
Album: Above
Tabbed by Rucka

*Dropped D Tuning*

Intro/ Chorus
(Play this part 3x)     Play this on the fourth time
G----------------------+------------------------
D----------------------+------------------------
A----------------------+------------------------
D-0-0-0-4-4-4-5-5-5-5h7+--0-0-0-4-4-4-5-4-4-4-2-
[ Tab from: http://www.guitartabs.cc/tabs/p/pillar/original_superman_btab.html ]
Verse:
G----------------------------------------
D----------------------------------------
A--------5-0---------5h7-8-7-5-5h7-------
D--0-0-0----5-7-7-7-7--------------7-5-3-

Bridge:
G---------------------
D---------------------
A---------------------
D-7-5-7-5-5-5-5-5-5-5-

This is the part right after the second chorus
G-----------------------------
D-----------------------------
A----0---3-3----0-------------
D--0---5-----0----0-3h5-0-5-2-

"Up and away, he's saving sould in a new way.."
G-------------
D-------------
A---3-0-------
D-0-----3-3---
Comments