Pillar - Live For Him Chords & Tabs

 

Live For Him Chords & Tabs

Pillar Chords & Tabs

Version: 1 Type: Tab 0 ratings
1 star 2 stars 3 stars 4 stars 5 stars
comments

Live For Him Tab

Intro/Verse:					End of Verse
e|---------------------------------------------------------|---------------|
B|---------------------------------------------------------|---------------|
G|---------------------------------------------------------|---------------|
D|-4-4-4--4-4-----------------------------------4-4-4--4-4-|-2-2--2-2-2-2-2|
A|-4-4-4--4-4------5-4-0-----------------5-4-0--4-4-4--4-4-|-2-2--2-2-2-2-2|
E|-2-2-2--2-2--0-0-------0-2-3-5-3-2--0-0-------2-2-2--2-2-|-0-0--0-0-0-0-0|
		  |--------------P.M.--------------| 	   |-------P.M.----|

Trick picking on the riff for the -0-0- it is alternate picked (down, up) 
and the rest is down picked except for the -5-3-2- which is also alternate 
picked
[ Tab from: http://www.guitartabs.cc/tabs/p/pillar/live_for_him_tab.html ]
From Verse  Pre-Chorus  Chorus
e|---------|-----------|---------------------------------------------------|
B|---------|-----------|---------------------------------------------------|
G|---------|-----------|-------5-------3-------5---------------------------|
D|-3-3-3/5-|-3-3-3-3/5-|-2-2-x-5-2-2-x-3-2-2-x-5-4-5-----------------------|
A|-3-3-3/5-|-3-3-3-3/5-|-2-2-x-3-2-2-x-1-2-2-x-3-4-5-----------------------|
E|-1-1-1/3-|-1-1-1-1/3-|-0-0-----0-0-----0-0-----2-3-----------------------|

  Bridge
e|----------------------------------------------|--------------------------|
B|----------------------------------------------|--------------------------|
G|--12-12-10-10-9h10-9h10-12-12-10-9-9-9-10-10--|--------------------------|
D|----------------------------------------------|----2-2-2-4-2-2-5-2-2-7---|
A|----------------------------------------------|----2-2-2-4-2-2-5-2-2-7---|
E|----------------------------------------------|----0-0-0-2-0-0-3-0-0-5---|

  Outro
e|-------------------------------------------------------------------------|
B|-------------------------------------------------------------------------|
G|-------------------------------------------------------------------------|
D|--------------------------------------------------------5-5-5-4-4-4------|
A|-------------------<4>-0-2-4/5\4p0----------------------5-5-5-4-4-4------|
E|--0-2-3-0-5-5-3-0--------------------0-2-3-0-5-5-3-0----3-3-3-2-2-2------|
  |-------P.M.------|       |P.M.|	 |--------P.M.-----|
Comments