Pillar - Frontline Chords & Tabs

 

Frontline Chords & Tabs

Pillar Chords & Tabs

Version: 1 Type: Tab 0 ratings
1 star 2 stars 3 stars 4 stars 5 stars
comments

Frontline Tab

   
Pillar - Frontline

Drop C

 Intro (1x)

 ------------------------------------------------------------------------|
 ------------------------------------------------------------------------|
 ------------------------------------------------------------------------|
 ---5-5--8--8--7--7-----5-5-5-5--8--8--7--7-----8-8--10--10--8--8--------|
 ---5-5--5--5--5--5-----5-5-5-5--5--5--5--5-----8-8---8---8--8--8--------|
 ---5-5--5--5--5--5-----5-5-5-5--5--5--5--5-----8-8---8---8--8--8--------|
    x x                 x x x x                 x x

------------------------------------|
------------------------------------|
------------------------------------|
---0-0-0-0---8--8--5--5-------------|
---0-0-0-0---0--0--0--0-------------|
---0-0-0-0---0--0--0--0-------------|
   x x x x

 Verse

 ------------------------------------------------------------------------|
 ------------------------------------------------------------------------|
 ------------------------------------------------------------------------|
 ---5-5--8--8--7--7-----5-5-5-5--8--8--7--7-----8-8--10--10--8--8--------|
 ---5-5--5--5--5--5-----5-5-5-5--5--5--5--5-----8-8---8---8--8--8--------|
 ---5-5--5--5--5--5-----5-5-5-5--5--5--5--5-----8-8---8---8--8--8--------|
    x x                 x x x x                 x x

------------------------------------|
------------------------------------|
------------------------------------|
---0-0-0-0---8--8--5--5-------------|
---0-0-0-0---0--0--0--0-------------|
---0-0-0-0---0--0--0--0-------------|

-------------------------------------|
-------------------------------------|
-------------------------------------|
---0-0-0-0---8--8--5--5--7-7h8p7-----|
---0-0-0-0---0--0--0--0--------------|
---0-0-0-0---0--0--0--0--------------|
   x x x x
[ Tab from: http://www.guitartabs.cc/tabs/p/pillar/frontline_tab.html ]
---------------------------------------------------------------|
---------------------------------------------------------------|
---------------------------------------------------------------|
--5-5--8--8--7--7--5--7---7h8------5-5--8--8--7--7--5--7---7h8-|
--5-5--5--5--5--5--5--5---5--------5-5--5--5--5--5--5--5---5---|
--5-5--5--5--5--5--5--5---5--------5-5--5--5--5--5--5--5---5---|
  x x  x  x  x  x  x  x   x        x x  x  x  x  x  x  x   x

-------------------------------------------------------------|
-------------------------------------------------------------|
-------------------------------------------------------------|
--8--8--10-10-8--8--10-8--8h10---0--0--8--8--5--5--8--5--7h8-|
--8--8--8--8--8--8--8--8--8------0--0--0--0--0--0--0--0--0---|
--8--8--8--8--8--8--8--8--8------0--0--0--0--0--0--0--0--0---|
  x  x  x  x  x  x  x  x  x      x  x  x  x  x  x  x  x  x

 Chorus

--------------------------------------------------------------------|
--------------------------------------------------------------------|
--------------------------------------------------------------------|
--3h5-5-5-5-5----3h5-5-5-5-5--3h5--5-5---8--8-8-8-8--3--3-3-3-3s10--|
--3h5-5-5-5-5----3h5-5-5-5-5--3h5--5-5---8--8-8-8-8--3--3-3-3-3s10--|
--3h5-5-5-5-5----3h5-5-5-5-5--3h5--5-5---8--8-8-8-8--3--3-3-3-3s10--|

--------------------------------------------------------------------|
--------------------------------------------------------------------|
--------------------------------------------------------------------|
--3h5-5-5-5-5----3h5-5-5-5-5--3h5--5-5---8--8-8-8---0---0---3---3h5-|
--3h5-5-5-5-5----3h5-5-5-5-5--3h5--5-5---8--8-8-8---0---0---3---3h5-|
--3h5-5-5-5-5----3h5-5-5-5-5--3h5--5-5---8--8-8-8---0---0---3---3h5-|
                                                    x   x   x

-----------------------------------------------------------------------|
-----------------------------------------------------------------------|
-----------------------------------------------------------------------|
---5--5--5-5---5--5--5-5-----------------------------------------------|
---5--5--5-5---5--5--5-5-------------------------5--------------3------|
---5--5--5-5---5--5--5-5---19s5-----5--5--3--3---------1--1---1----3---|
Comments