Pillar - Fireproof Chords & Tabs

 

Fireproof Chords & Tabs

Pillar Chords & Tabs

Version: 3 Type: Tab

Fireproof Tab

   
Dropped D Tuning
This isn't quite all yet, but it's 100% correct .

Intro Part 1 (with delay)

E-----------------------------------
B-----------------------------------
G-----------------------------------
D-0-----2-----3-----5-5-5-5-8-8-7-7-
A-0-----2-----3-----5-5-5-5-8-8-7-7-
d-0-----2-----3-----5-5-5-5-8-8-7-7-

Intro Part 2 and Verse
E-----------------------------------------------
B-----------------------------------------------
G-----------------------------------------------
D-------------------------------5-5-5-5-8-8-7-7-
A-------5---------5---------5---5-5-5-5-8-8-7-7-
d-0-0-0---0-2-2-2---2-3-3-3---3-5-5-5-5-8-8-7-7-
[ Tab from: http://www.guitartabs.cc/tabs/p/pillar/fireproof_tab_ver_3.html ]
Chorus
E---------------------------------
B---------------------------------
G---------------------------------
D-0-0---------0-0---------10----7-
A-0-0-6/5/6/5-0-0-6/5/6/5-8-----5-    
d-0-0---------0-0---------8-----5-

Chorus -- Last Time Through Ending
E---------------------------------
B---------------------------------
G---------------------------------
D---------------------------------
A---------------------------------
d-8-8-8-8-5-5-8-8-5-5-5-5-3-3-5-5-
 pm------------------------------

That's it for now, the main parts atleast.  Stay tuned for the rest
to come very shortly (in the next week) if this makes it onto the web site.
Tabbed by Mike