Pillar - Fireproof Chords & Tabs

 

Fireproof Chords & Tabs

Pillar Chords & Tabs

Version: 1 Type: Bass Tab 0 ratings
1 star 2 stars 3 stars 4 stars 5 stars
comments

Fireproof Bass Tab

Fireproof
Pillar

/# = slide up to (whatever # is after) , # = slide down to (whatever # is
after)

Verse
G ---------------------------------------------------------------------------
D ---------------------------------------------------------------------------
A ---------------------------------------------------------------------------
D -3----3-3-3----5----5-5-5----6----6-6-6----8----8-8-8----------------------



Chorus
G ---------------------------------------------------------------------------
D ---------------------------------------------------------------------------
A -5----5-5-5------5----5-5-5-5----------------------------------------------
D --------------3-------------------3--------11-11----11-8----8--------------

[ Tab from: http://www.guitartabs.cc/tabs/p/pillar/fireproof_btab.html ]
Bridge  
G --------------------------------------------------------------x------------
D --------------------------------------------------------------x------------
A --------------------------------------------------------------x------------
D -3-3---3-3/128-8---8-8/126-6---6-6/1211-11---11-11--12-13--x-3/11-11-11-11-

(D string continued , sorry, goes after 11)                   ----11-8-8-8
After x is what to play after bridge on last time, to chorus.


End
G ---------------------------------------------------------------------------
D ---------------------------------------------------------------------------
A ---------------------------------------------------------------------------
D -3-on each drum beat-------------------------------------------------------



Order:
Verse
Chorus
Verse
Chorus
Bridge
Chorus
End
Any questions?  undergroundRedvan@hotmail.com
Comments