Pillar - Echelon Chords & Tabs

 

Echelon Chords & Tabs

Pillar Chords & Tabs

Version: 2 Type: Tab

Echelon Tab

verse
---------------------------------------------------------------------------|
---------------------------------------------------------------------------|
---------------------------------------------------------------------------|
9-9----9-9----9-9-----9-9-----12-12-----12-12-----12-12-----12-12----------|
---9-9----9-9-----9-9-----9-9-------9-9-------9-9-------9-9-------9-9------|
---------------------------------------------------------------------------|

[ Tab from: http://www.guitartabs.cc/tabs/p/pillar/echelon_tab_ver_2.html ]
---------------------------------------------------------------------------|
---------------------------------------------------------------------------|
---------------------------------------------------------------------------|
5-5-----5-5-----5-5-----5-5---7-7---9-9-------9-9-------9-9-------9-9------|
----7-7-----7-7-----7-7-----------------10-10-----10-10-----10-10----10-10-|
---------------------------------------------------------------------------|

Now that is the correct version, take my word for it.