Pillar - Echelon Chords & Tabs

 

Echelon Chords & Tabs

Pillar Chords & Tabs

Version: 1 Type: Tab 0 ratings
1 star 2 stars 3 stars 4 stars 5 stars
comments

Echelon Tab

Pillar-Fireproof
Echelon


Dropped D tuning

Intro/Verse/Outro
----------------------------------------------------------------------------
----------------------------------------------------------------------------
----------------------------------------------------------------------------
9-9-----9-9----9-9-----9-9-----12-12-----12-12-----12-12-----12-12----------
----9-9----9-9-----9-9-----9-9-------9-9-------9-9-------9-9-------9-9------
----------------------------------------------------------------------------
[ Tab from: http://www.guitartabs.cc/tabs/p/pillar/echelon_tab.html ]
----------------------------------------------------------------------------
----------------------------------------------------------------------------
----------------------------------------------------------------------------
5-5-----5-5-----5-5-----5-5------8-8-----8-8-----8-8-----8-8----------------
----5-5-----5-5-----5-5-----5-5------8-8-----8-8-----8-8-----8-8------------
----------------------------------------------------------------------------

Chorus
----------------------------------------------------------------------------
----------------------------------------------------------------------------
----------------------------------------------------------------------------
-9-9-9--7--5-5-5-----0-0--2-2-----------------------------------------------
-9-9-9--7--5-5-5-----0-0--2-2-----------------------------------------------
-9-9-9--7--5-5-5-----0-0--2-2-----------------------------------------------


Sorry,I don't have the solo yet I still gottta work out a few bugs. But
hey Pillar is a great band, check em out live if you get the chance.
                    Blake
Comments