Pillar - Bring Me Down Chords & Tabs

 

Bring Me Down Chords & Tabs

Pillar Chords & Tabs

Version: 2 Type: Tab 0 ratings
1 star 2 stars 3 stars 4 stars 5 stars
comments

Bring Me Down Tab

   
----------------------------------------------------------------------------
                    bring me down- pillar
----------------------------------------------------------------------------

tabber:barrett
email: bearman_44@yahoo.com

intro

d|-------------------------------------------------------------------------|
A|-------------------------------------------------------------------------|
F|-----------------5-5-----------------------------------------------------|
C|-3-3-3-3-3-3-1-3-5-5-6-6-1-1-1-1-1-8-8-----------------------------------|
G|-3-3-3-3-3-3-1-3-3-3-6-6-1-1-1-1-1-8-8-----------------------------------|
C|-3-3-3-3-3-3-1-3-----6-6-1-1-1-1-1-8-8-0-0-8-6-6-------------------------|
[ Tab from: http://www.guitartabs.cc/tabs/p/pillar/bring_me_down_tab_ver_2.html ]
verse
d|----------------------------------------|-----------|--------------------|
A|----------------------------------------|-----------|--------------------|
F|----------------------------------------|-----------|------6-p5----------|
C|-----6-6-----5-5-----8-8------8-8-------|6---6------|-5-h8---------------|
G|-8-8-----8-8-----8-8------6-6-----6-6-4-|--4--------|--------------------|
C|----------------------------------------|-------6-6-|--------------------|
   chorus
d|---------------------------------------|----------|----------------------|
A|---------------------------------------|----------|----------------------|
F|-----------------5-5-------------------|----------|-6-6-8-8--------------|
C|-3-3-3-3-3-3-1-3-5-5-6-6-1-1-1-1-1-8-8-|----------|-6-6-8-8--------------|
G|-3-3-3-3-3-3-1-3-3-3-6-6-1-1-1-1-1-8-8-|----------|-4-4-6-6--------------|
C|-3-3-3-3-3-3-1-3-----6-6-1-1-1-1-1-8-8-|0-0-8-6-6-|----------------------|


bridge
d|-------------|-------------|-------------------------|-------------------|
A|-------------|-------------|-------------------------|-------------------|
F|-------------|-------------|-------------------------|-------------------|
C|-------------|-1-3-3-3-1-1-|-------8-------8-------8-|-------------------|
G|-------------|-1-3-3-3-1-1-|-6-5-6---6-5-6---6-5-6---|-------------------|
C|-1-3-3-3-1-1-|-1-3-3-3-1-1-|-------------------------|-------------------|

outro

d|-------------------------------------------------------------------------|
A|-------------------------------------------------------------------------|
F|-------------------------------------------------------------------------|
C|-1-3-3-3-1-1-1-3-3-3-1-1-3-3-3-3-1-3-3-3-1-3-----------------------------|
G|-1-3-3-3-1-1-1-3-3-3-1-1-3-3-3-3-1-3-3-3-1-3-----------------------------|
C|-1-3-3-3-1-1-1-3-3-3-1-1-3-3-3-3-1-3-3-3-1-3-----------------------------|


| /  slide up
| \  slide down
| h  hammer-on
| p  pull-off
| ~  vibrato
| +  harmonic
| x  Mute note
============================================================================
Comments