Pillar - Bring Me Down Chords & Tabs

 

Bring Me Down Chords & Tabs

Pillar Chords & Tabs

Version: 1 Type: Bass Tab

Bring Me Down Bass Tab

   
Band- Pillar
Song- Bring Me Down

tuning: F,C,G,C

Intro
|--------------------------------------------------------------|x3
|--------------------------------------------------------------|
|-------------------------3-3----------------------------------|
|-3--3-3--3-3-1-3----3-3------6-6----1--1--1-1--8--0-0-8p0-6-6-|

Intro Condt    play this the 4th time going into the verse
|---------------------------------------------------|
|---------------------------------------------------|
|-------------------------3-3-----------------------|
|-3--3-3--3-3-1-3----3-3------6-6----1--1--1-1---11-|

Verse
|----------------------------------------------------|x5
|--------5--8------------------------5--8------------|
|---8-8--------6666-4-----------8-8--------6-6--4----|
|--------------------------------------------------6-|
[ Tab from: http://www.guitartabs.cc/tabs/p/pillar/bring_me_down_btab.html ]
play this on the sixth time going into the chorus
|---------------------------------------|
|-------5--8-------------5-8------------|
|---8-8------6-6-4--8-8-------6-6--4----|
|-------------------------------------3-|

Chorus

Verse 2

Bridge The guitar plays 2 measures then all instruments kick in
bridge 1
|--------------------------|x5 then
|--------------------------|
|--------------------------|
|-3--1-3--3-3-1-3--1-3-3-1-|

bridge 2
|-------------------------------x2--------------------------|x3
|-----------------------------------------------------------|
|-4-4-4-4-4-4-4-4-4-4-4-4h6-6-6-----------------------------|
|----------------------------------3--1-3--3-3-1-3--1-3-3-1-|

|-------------------------------x2--------------------------|x3
|-----------------------------------------------------------|
|-4-4-4-4-4-4-4-4-4-4-4-4h6-6-6-----------------------------|
|----------------------------------3--1-3--3-3-1-3--1-3-3-1-|
                                    then when he singsits not like Im  running away
|-------------------------------x4?|--------------------------|
|----------------------------------|--------------------------|
|-4-4-4-4-4-4-4-4-4-4-4-4h6-6-6----|----------4-4-4-4-4-4-4-4-|
|----------------------------------|-1-1--1-1-----------------|