Pillar - Behind Closed Doors Chords & Tabs

 

Behind Closed Doors Chords & Tabs

Pillar Chords & Tabs

Version: 1 Type: Bass Tab 0 ratings
1 star 2 stars 3 stars 4 stars 5 stars
comments

Behind Closed Doors Bass Tab

Behind Closed Doors
Pillar

Key:
_ = hold
Verse
G ----------------------------------------------------------------------------
D ----------------------------------------------------------------------------
A ----------------------------------------------------------------------------
D -3-3-3-0-3___-6-6-6-6-8-8-8-8-----------------------------------------------

[ Tab from: http://www.guitartabs.cc/tabs/p/pillar/behind_closed_doors_btab.html ]
Chorus
G ----------------------------------------------------------------------------
D ----------------0-4---------------------------------------------------------
A --------------3-------5-5-5-----5--5-----5-5--------------------------------
D -11---7---3-----------------3---------3-------3-----------------------------


Bridge 
G ----------------------------------------------------------------------------
D During whisper-------------------------During hard-0--------0--------0------
A ----------------------------------------------------3-0------3-0------3-0---
D -3_______-6_______-8_______-8_______-------------------3--------3-----------
Repeat hard until chorus (between bridge and chorus there is a little
something easy to pick up.



Order:
Verse
Chorus
Verse
Chorus
Bridge whisper
Bridge hard
(easy to pick up part)
Chorus
any questions?  undergroundRedvan@hotmail.com
Comments