Pilate - Perfect Thrill Chords & Tabs

 

Perfect Thrill Chords & Tabs

Pilate Chords & Tabs

Version: 1 Type: Tab 0 ratings
1 star 2 stars 3 stars 4 stars 5 stars
comments

Perfect Thrill Tab

Tabbed by: Eric
Artist: Pilate
Song Title: Perfect Thrill

Tuning: Standard

I'm not gonna tab every count, you can figure that out, but here's the basic chord 
in the song.

Beginning

e|--------------------------------------------------------------------------|
B|------------2--------1----------------------------------------------------|
G|---0--------0--------0-------0--------------------------------------------|
D|---2--------2--------2-------0---0----------------------------------------|
A|---2--------2--------3-------2---x----------------------------------------|
E|---0--------0----------------3---2----------------------------------------|

Verse

e|--------------------------------------------------------------------------|
B|-----------------------------2--------------------------1-----------------|
G|--0--------------------------0--------------------------0-----------------|
D|--2--------------------------2--------------------------2-----------------|
A|--2--------------------------2--------------------------3-----------------|
E|--0--------------------------0--------------------------------------------|
      This morning is a thrill...For you just made your kill...

e|--------------------------------------------------------------------------|
B|--------------------------------------------------------------------------|
G|--0----------------------------------------------0------------------------|
D|--0-------------------------0--------------------2------------------------|
A|--2-------------------------x--------------------2------------------------|
E|--3-------------------------2--------------------0------------------------|
    You took that dream and slowly slit its throat.

follow that pattern for the verses....then...

Chorus

e|-------------------------------2------------------------------------2-----|
B|--0----------------------------3------------------------------------3-----|
G|--0----------------------------2------------------------------------4-----|
D|--2----------------------------0------------------------------------4-----|
A|--3-----------------------------------------------------------------2-----|
E|--------------------------------------------------------------------------|
   Do you know what I've been feeling?   Did you know my mind was reeling?
[ Tab from: http://www.guitartabs.cc/tabs/p/pilate/perfect_thrill_tab.html ]
e|--------------------------------------------------------------------------|
B|-------------------------------------------------------1------------------|
G|------------------------0------------------------------0------------------|
D|------------------------2------------------------------2------------------|
A|------------------------2------------------------------3------------------|
E|------------------------0-------------------------------------------------|
   Have you ever seen the sun go down on such a perfect thrill?

e|------------------2-------------------------------------------------------|
B|------------------3-------------------------------------------------------|
G|------------------2-------------------------------0-----------------------|
D|------------------0-------------------------------0-----------------------|
A|--------------------------------------------------2-----------------------|
E|--------------------------------------------------3-----------------------|
   Such a perfect thrill.. yeah you just made your kill. <--play around with this part 
here for a bit before the second verse..

the second verse is the same chord progession as the first.. then the chorus is the same 
well.

Then this part.

e|-----------------------------------------------------------------------|
B|-----------------------------------------------------------------------|
G|--0--------------------------0-------------------------------0---------| x2
D|--0----------0---------------0------------------0------------0---------|
A|--2----------x---------------2------------------x------------2---------|
E|--3----------2---------------3------------------2------------3---------|
    Turn your back, from this track.. For empty holes with vehicles...

    then..

e|---------------2----------2--------------------------------------------|
B|--1------------3----------3--------------------------------------------|
G|--0------------2----------4-------------------0------------------------| x2
D|--2------------0----------4-------------------2------------------------|
A|--3-----------------------2-------------------2------------------------|
E|----------------------------------------------0------------------------|
      I've been blind lately,   Despite these climbs, I'm waiting

e|--------------------------------------------------------------------------|
B|----------------------------------1---------------------------------------|
G|----------------------------------0---------------------------------------|
D|----------------------------------2---------------------------------------|
A|----------------------------------3---------------------------------------|
E|--------------------------------------------------------------------------|
     And over time I'll share your sins.

End on G.

That's it! Enjoy!
Comments