Pilate - Melt Into The Walls Chords & Tabs

 

Melt Into The Walls Chords & Tabs

Pilate Chords & Tabs

Version: 1 Type: Tab 0 ratings
1 star 2 stars 3 stars 4 stars 5 stars
comments

Melt Into The Walls Tab

   
Title: Melt Into the Walls
Artist: Pilate
Album: Caught by the Window
Tuning: Standard (EADGBe)
Tabbist: Eli Weinstein (trixterr89@hotmail.com)

Clean Guitar
Intro
  A                    F#/Asus5           Dsus2            Bm
|---------------------------------------------0--------0---------------|
|--2----2----2----2----4----4----4----4----3---3----3---3----3----3----|
|---2----2----2----2----2----2----2----2----2---2----2---2----4----4---|
|-2--2-2--2-2--2-2--2-2--2-2--2-2--2-2--2-0--0---0-0--0---0-4--4-4--4--|
|0----0----0----0----0----0----0----0----0--------0--------2----2----2-|
|----------------------------------------------------------------------|
[ Tab from: http://www.guitartabs.cc/tabs/p/pilate/melt_into_the_walls_tab.html ]
-----------|
--3----3---|
---4----4--|
-4--4-4--4-|
2----2----2|
-----------|
Verse 1
|-----------------0~----------------------------------------------0-----|
|--2------4-----3----3----3----3------3-----3---2------4-------3---3----|
|---2------2-----2----2----4----4------4---4-----2------2-------2---2---|
|-2--2---2--2-----0----0-4--4-4--4---4--4-4----2--2---2--2----0--0---0--|
|0----0~0----0~---------2----2----2-2----2----0----0~0----0~-0--------0-|
|-----------------------------------------------------------------------|
2----5------------------------------------------------------------------|
-3----3------3----3------3----3-----------------------------------------|
--2----2------4----4------4----4----------------------------------------|
---0----0---4--4-4--4---4--4-4--4---------------------------------------|
----0----0-2----2----2-2----2----2--------------------------------------|
------------------------------------------------------------------------|
Chorus
|---------------------------------------------------------------------|
|--SAME RIFF AS THE INTRO, BUT OMIT 2ND REPITITION OF EACH CHORD------|
|---------------------------------------------------------------------|
|---------------------------------------------------------------------|
|---------------------------------------------------------------------|
|---------------------------------------------------------------------|
Verse 2= chorus riff.
Bridge
|2~-0~-2~------0~-2--0--2--0---|
|3~-2~-3~------2~--3--3--3--3--|
|2~-2~-2~----2~2~---2--2--2--2-|
|0~-2~-0~-0h2--2~--------------|
|---0~---------0~--------------|
|------------------------------|
Solo
|0--0-0-0--0000--|0-0--0-0-0--0000-0-0|0|0|0|0|2|2|
|2--2-2-2--2222--|2-2--2-2-2--2222-2-2|2|2|3|3|3|3|
|2--2-2-2--2222--|2-2--2-2-2--2222-2-2|2|2|2|2|4|4|
|2--2-2-2--2222-2|2-2--2-2-2--2222-2-2|2|2|0|0|4|4|
|0--0-0-0--0000-0|0-0--0-0-0--0000-0-0|0|0|-|-|2|2|
|SAME STRUMMING THROUGHOUT>>>>>>>>>>>>|2|2|>|>|>|>|

Electric Fills:

Main fill in intro & Verse

|4-5-2|
|-----|
|-----|
|-----|
|-----|
|-----|

Riff at the end of verse
|-----------------|
|-----------------|
|2-4-4b(5)r4-2----|
|-------------4-2-|
|-----------------|
|-----------------|

SOLO
|4-5-2--4-5-2--4-5-2--4-5-7-9-12-17-19-19b(20)r19-17-----|
|---------------------------------------------------19-17|
|--------------------------------------------------------|
|--------------------------------------------------------|
|--------------------------------------------------------|
Comments