Pilate - Into Your Hideout Chords & Tabs

 

Into Your Hideout Chords & Tabs

Pilate Chords & Tabs

Version: 6 Type: Tab

Into Your Hideout Tab

   
-------------------------------------------------------------------------------
			  INTO YOUR HIDEOUT - Pilate
-------------------------------------------------------------------------------
Tabbed by: Barry Miles
Email: shoebox_of_lies@hotmail.com

Tuning: Standard

A few versions on this site, but none of em really had it. I don't mean to sound 
but I think this is pretty perfect, with the odd tiny mistake (probably in the bridge).

Intro/Main Riff Electric:

e|-----------------------------------------------------------------------------|
B|-----------------------------------------------------------------------------|
G|-9---9-9-9-/-11--9---9-9-9-/-11--7---7-7-7-7--6---6-6-6-6--------------------|
D|-9---9-9-9-/-11--9---9-9-9-/-11--7---7-7-7-7--7---7-7-7-7--------------------|
A|-7---7-7-7-------7---7-7-7-------5---5-5-5-5--4---4-4-4-4--------------------|
E|-----------------------------------------------------------------------------|

Background Acoustic Chords:
  G                                 D             A

Last Time before verse begins:
e|-----------------------------------------------------------------------------|
B|-----------------------------------------------------------------------------|
G|-9---9-9-9-/-11--9---9-9-9-/-11--7---7-7-7-7--6-------6-6--------------------|
D|-9---9-9-9-/-11--9---9-9-9-/-11--7---7-7-7-7--7-------7-7--------------------|
A|-7---7-7-7-------7---7-7-7-------5---5-5-5-5--4-------4-4--------------------|
E|-----------------------------------------------------------------------------|

Verse:

Electric Strums G Once

Acoustic:
G                               D              A
I've made it my dear face it, I still kiss the darkness
     G                                  D            A
What I've wasted, I still taste it, I'm sickened and hardened
          G               D               A
I'm gonna tear, I'm gonna tear your walls down
          G               D               A
I'm gonna tear, I'm gonna tear your walls down
  Em    G/F#  G    A(strum once, hold)
I stole into your hideout

Electric (I'm gonna tear...):
e|-------0-------0------0h2p0--------0---------------------------------------|
B|---3-------3------3------------3-------3-----------------------------------|
G|-0---0-------0------0------------2-------2-----6----6h7p6------------------|
D|-----------------------------0-------------------7-------------------------| x2
A|-------------------------------------------4-------------------------------|
E|---------------------------------------------------------------------------|
[ Tab from: http://www.guitartabs.cc/tabs/p/pilate/into_your_hideout_tab_ver_6.html ]
(strum once only)
  Em              A
I stole into your hideout

Mainriff

Verse 2 (same as verse 1):
I walked with you I talked with you, I still can help thinking
Your drugs bleeding, so sweet yet fleeting, my memories are sinking.
I;m gonna tear, I'm gonna tear your walls down
I'm gonna tear, I'm gonna tear your walls down

  Em    G/F#  G    A
I stole into your hideout
  Em (hold)
And It's cold there now,

First Bridge:

Electric:
e|-7---7-7-8-7-8-7---7-7-8-7-8-10--10-10-10-10-10-9---9--9--10-9--9--------|
B|-8---8-8-8-8-8-8---8-8-8-8-8-10--10-10-10-10-10-10--10-10-10-10-10-------|
G|-7---7-7-7-7-7-7---7-7-7-7-7-11--11-11-11-11-11-9---9--9--9--9--9--------| x2
D|-------------------------------------------------------------------------|
A|-------------------------------------------------------------------------|
E|-------------------------------------------------------------------------|

e|------------------------------------------------------------------|
B|------------------------------------------------------------------|
G|-11-----9-----11-----9-----11-----9-------------------------------|
D|-----12----12-----12----12-----12----12-11b12b11----11b12b11------|
A|-------------------------------------------------12----------12---|
E|------------------------------------------------------------------|

e|---------------------------------------------|
B|---------------------------------------------|
G|-11-----9-----11-----9------12~-11~-9~-11~---|
D|-----12----12-----12----12-------------------|
A|---------------------------------------------|
E|---------------------------------------------|

Acoustic:
G                           D           A        x4

Second Bridge:

Electric:
e|--10------------|
B|----------------|
G|-------11-------|
D|----------------|
A|----------------|
E|----------------|

Acoustic (not actually played, but if you dont have an organ or whatever is it):
Bm                                Bm/A
And Everything outside the truth, theres nothing more to cut it loose,
     D                  G    G/F# Em
I've left the path, the road just disappeared.

Main Riff

Verse 3:
Gray shadows and white meadows, a bitter snow is falling
My legs fail me, the ground hails me, distant lights are calling
Into your hideout,Into your hideout dear, tearing my heart out now

Outro (Main Riff Progression):
And you say,
And i say,
  Em    G/F#  G   A
I stole into your hideout

| /  slide up
|   slide down
| h  hammer-on
| p  pull-off
| ~  vibrato
| +  harmonic
| x  Mute note
===============================================================================