Pilate - Into Your Hideout Chords & Tabs

 

Into Your Hideout Chords & Tabs

Pilate Chords & Tabs

Version: 5 Type: Tab 0 ratings
1 star 2 stars 3 stars 4 stars 5 stars
comments

Into Your Hideout Tab

Song Name:Into Your Hideout
Band Name:Pilate
Tabbed By:ScHrOeDeR

I Havnt found a tab of this song thats completely correct. Heres how i play it and i
think it sounds perfect.

Standard Tuning: EADGBe

Intro

e|-0--000020--000022--222200--00000----------|  third time hit the A chord
B|-3--333333--333333--333332--22223----------|  just twice and hit G once
G|-0--000000--000002--222222--22222----------|  before the first verse
D|-0--000000--000000--000002--22222----------|x3
A|-2--222222--22222--------0--00000----------|
E|-3--333333--33333--------------------------|

Verse 1 accoustic guitar lightly strums G,D,A twice then lead
guitar plays this riff twice

e|---0---0--0-0-2-0------0----------------|
B|-0---0---0--------3s0-3-3-2--2-3-2-0----|
G|----------------------------------------|
D|----------------------------------------|
A|----------------------------------------|
E|----------------------------------------|

Prechorus

e|-3---3--0-------------------------------|
B|-3---3--2-------------------------------|
G|-0-0-0--2--let ring---------------------|
D|-0-0-0--2-------------------------------|
A|-2-2-2--0-------------------------------|
E|-3-3-3----------------------------------|

Then play the intro once the way its played before the first verse

Verse 2: same as verse one except while accoustic guitar is stumming
the chords at the beginning of the verse, lead guitar plays:

e|-3----2----2-3-2--0----------------------| 
B|-3----3----3------2----------------------| 
G|-0----0----2------2----------------------| 
D|-0----0----0------2----------------------|x2
A|-2----x-----------0----------------------|
E|-3----3----------------------------------|

then play prechorus, pause and hit G once before going into the solo

solo - played over G, D, A
[ Tab from: http://www.guitartabs.cc/tabs/p/pilate/into_your_hideout_tab_ver_5.html ]
e|-7----10---9----------------|listen to the song to see how many times 
B|-8----12---10---------------|each chord is played. its fast strumming
G|-7----12---9----------------|so i cant put an exact number on it
D|-9----12---11---------------|x2
A|-x----x----x----------------|
E|-x----x----x----------------|

e|---------------------------------------------------------------|
B|---------------------------------------------------------------|
G|-11----9----11----9----11--------------------------------------|
D|----12---12----12---12----12-11b12r11---11b12r11---11b12r11----|
A|--------------------------------------12---------12---------12-|
E|---------------------------------------------------------------|

e|----------------------------------------|
B|----------------------------------------|
G|-11----9----11----9----12-11-9----------|
D|----12---12----12---12---------11-------|
A|----------------------------------------|
E|----------------------------------------|

Bridge

e|-----14--------------------------|thats the only guitar thats actually 
B|--15-----------------------------|played during the bridge. The chords are 
G|---------------------------------|Bm and F# if u want to play along with 
D|---------------------------------|the singing
A|---------------------------------|
E|---------------------------------|

Then play the full intro once

Verse 3/Outro: same as verse 2 except lead guitar plays the intro over the accoustic
guitar after he has strummed the G D and A twice. Just listen to the song and you'll
understand.

Ends on:

e|-3---3--0--------------------------|
B|-3---3--2--------------------------|
G|-0-0-0--2--------------------------|
D|-0-0-0--2--------------------------|
A|-2-2-2--0--------------------------|
E|-3-3-3-----------------------------|

-Enjoy-
Comments