Pilate - Into Your Hideout Chords & Tabs

 

Into Your Hideout Chords & Tabs

Pilate Chords & Tabs

Version: 4 Type: Tab 0 ratings
1 star 2 stars 3 stars 4 stars 5 stars
comments

Into Your Hideout Tab

   
                         INTO YOUR HIDEOUT
                              Pilate
                               Tabs

Intro
E---------------------10--10-10-10-10-10------------|
B-12--12-12-12-12-12--10--10-10-10-10-10--14--14-14-|
G-12--12-12-12-12-12--11--11-11-11-11-11--14--14-14-|
D-12--12-12-12-12-12--12--12-12-12-12-12--14--14-14-|
A-10--10-10-10-10-10--12--12-12-12-12-12--12--12-12-|
E---------------------10--10-10-10-10-10------------|

VERSE 1

  G(2nd position)                         D               A
E-0---------------------------------------2---------------0-----------------|
B-0---------------------------------------3---------------2-----------------|
G-3----/----------/-----------/-----------2-------/-------2--------/--------|
D-5----/----------/-----------/-----------0-------/-------2--------/--------|
A-5-------------------------------------------------------0-----------------|
E-3-------------------------------------------------------------------------|

SOLO
[ Tab from: http://www.guitartabs.cc/tabs/p/pilate/into_your_hideout_tab_ver_4.html ]
  G                            D    A     G
E--------------------------------------|-----------------------------------|
B-7~---5~---7~---5~---7~---5~----------|-7~---5~---7~---5~-----8~-7~-5-----|
G-----7----7----7----7----7---6(b)-6(b)|-----7----7----7----7-----------6~-|
D--------------------------------------|-----------------------------------|
A--------------------------------------|-----------------------------------|
E--------------------------------------|-----------------------------------|

BRIDGE

  Bm                                      D               Em
E-2---------------------------------------2---------------0-----------------|
B-3---------------------------------------3---------------0-----------------|
G-4----/----------/-----------/-----------2-------/-------0--------/--------|
D-4----/----------/-----------/-----------0-------/-------2--------/--------|
A-2-------------------------------------------------------2-----------------|
E-2-------------------------------------------------------0-----------------|
Comments