Pilate - Barely Listening Chords & Tabs

 

Barely Listening Chords & Tabs

Pilate Chords & Tabs

Version: 1 Type: Tab

Barely Listening Tab

   
Barely Listening
Tune down half step

(Obviously the rhythm instrument is a rhodes but you can strum these
chords)
Verses and Choruses:


    Em      D       Am      G     B7

Eb|-0-----0-h2-----0--0-----3-----2----------------------------------------|
Bb|-0-----3--3-----0-h1-----3-----0----------------------------------------|
Gb|-0-----2--2-----x--x-----0-----2----------------------------------------|
Db|-2-----0--0-----2--2-----0-----1----------------------------------------|
Ab|-2-----0--0-----0--0-----2-----2----------------------------------------|
Eb|-0-----------------------3----------------------------------------------|

Guitar lead in the chorus
(listen to the track for correct timing and picking):

Eb|-------------------------------------------------------------------------|
Bb|-0--0--0--0--0--0--0--0-/17-17-17-17-17-17-17-17-17-17-17-17-17-17-17-17-|
Gb|-4--5--4--5--4--5--4--5--------------------------------------------------|
Db|-------------------------------------------------------------------------|
Ab|-------------------------------------------------------------------------|
Eb|-------------------------------------------------------------------------|

Eb|-------------------------------------------------------------------------|
Bb|-17-15-15-15-15-15-15-15-15-19-19-19-19-19-19b20r19----17-17-17-17-17-17-|
Gb|-------------------------------------------------------------------------|
Db|-------------------------------------------------------------------------|
Ab|-------------------------------------------------------------------------|
Eb|-------------------------------------------------------------------------|

Eb|-------------------------------------------------------------------------|
Bb|-17-17-17-17-17-17-17-17-17-17-15-15-15-15-15-15-15-15-16-16-16-16-16-16-|
Gb|-------------------------------------------------------------------------|
Db|-------------------------------------------------------------------------|
Ab|-------------------------------------------------------------------------|
Eb|-------------------------------------------------------------------------|

Eb|-0----------------------------------------------------------------------|
Bb|-17---------------------------------------------------------------------|
Gb|------------------------------------------------------------------------|
Db|------------------------------------------------------------------------|
Ab|------------------------------------------------------------------------|
Eb|------------------------------------------------------------------------|

Bridge:

    E     G     D     A

Eb|-0-----3-----2-----0--------0-----15----14----12----0-----15----14----12-|
Bb|-0-----3-----3-----2--------0-----15----15----14----0-----15----15----14-|
Gb|-1-----0-----2-----2--------13----0-----14----------13----0-----14-------|
Db|-2-----0-----0-----2--------14----------0-----14----14----------0-----14-|
Ab|-2-----2-----0-----0--------------------------0-----------------------0--|
Eb|-0-----3--------------------------15----------------------15-------------|
                                Tremolo pick this with real heavy delay
[ Tab from: http://www.guitartabs.cc/tabs/p/pilate/barely_listening_tab.html ]
Eb|-12----------------------------------------------------------------------|
Bb|-13----------------------------------------------------------------------|
Gb|----------13-13-13-13-13-13-13-13-13-13-13-13-13-13-13-13-12-12-12-12-12-|
Db|-14----------------------------------------------------------------------|
Ab|-0--------11-11-11-11-11-11-11-11-11-11-11-11-11-11-11-11-10-10-10-10-10-|
Eb|----------12-12-12-12-12-12-12-12-12-12-12-12-12-12-12-12-10-10-10-10-10-|
                       (give it some overdrive here, delay off)


Eb|-------------------------------------------------------------------5--5-|
Bb|-------------------------------------------------------------------5--5-|
Gb|-12-12-12-12-12-12-12-12-12-12-12----6--6--6--6--6--6--6--6--6--6--5--5-|
Db|-------------------------------------7--7--7--7--7--7--7--7--7--7--7--7-|
Ab|-10-10-10-10-10-10-10-10-10-10-10----7--7--7--7--7--7--7--7--7--7--7--7-|
Eb|-10-10-10-10-10-10-10-10-10-10-10----5--5--5--5--5--5--5--5--5--5--5--5-|

Eb|-5--5--5--5--5--5--------------------------------------------------------|
Bb|-5--5--5--5--5--5--------------------------------------------------------|
Gb|-5--5--5--5--5--5--13-13-13-13-13-13-13-13-13-13-13-13-13-13-13-13-12-12-|
Db|-7--7--7--7--7--7--------------------------------------------------------|
Ab|-7--7--7--7--7--7--11-11-11-11-11-11-11-11-11-11-11-11-11-11-11-11-10-10-|
Eb|-5--5--5--5--5--5--12-12-12-12-12-12-12-12-12-12-12-12-12-12-12-12-10-10-|


Eb|------------------------------------------------------------------------|
Bb|------------------------------------------------------------------------|
Gb|-12-12-12-12-12-12-12-12-12-12-12-12-12-12-4--4--4--4--4--4--4--4--8--8-|
Db|------------------------------------------------------------------------|
Ab|-10-10-10-10-10-10-10-10-10-10-10-10-10-10-2--2--2--2--2--2--2--2--6--6-|
Eb|-10-10-10-10-10-10-10-10-10-10-10-10-10-10------------------------------|

Eb|----------------------7--7--7--7--7--7-----------------------------------|
Bb|----------------------8--8--8--8--8--8-----8--8--8--8--7--7-----10-10-10-|
Gb|-8--8--8--8--8--8-----------------------------------------------9--9--9--|
Db|----------------------9--9--9--9--9--9-----7--7--7--7--7--7-----10-10-10-|
Ab|-6--6--6--6--6--6-----7--7--7--7--7--7-----5--5--5--5--5--5--------------|
Eb|----------------------0--0--0--0--0--0--------------------------8--8--8--|
                       (Mucho Distortione Time, Karate Kicks optional)

Eb|------------------------------------------------------------------------|
Bb|-10-10-10----10-10-10-10-10---------------------------------------------|
Gb|-9--9--9-----9--9--9--9--9-----8--8--8--8--8----------------------------|
Db|-10-10-10---------------------------------------------------------------|
Ab|-------------------------------6--6--6--6--6----------------------------|
Eb|-8--8--8-----7--7--7--7--7-----7--7--7--7--7----------------------------|


 Then back to the verse/chorus chords with the high guitar line over top
with some variations, except tremolo pick the bejesus out of that line

And there you have it. This is my first attempt at tabbing and while i know what i 
i may have entered in some wrong data somewhere. Just listen to the tune and you'll figure it 
it's an easy song. Have fun.