Pilate - Alright Chords & Tabs


Alright Chords & Tabs

Pilate Chords & Tabs

Version: 2 Type: Chords 0 ratings
1 star 2 stars 3 stars 4 stars 5 stars

Alright Chords

Tabbed By: Eric
Artist: Pilate
Song Title: Alright

Hi, I know many people say that this is my first tab and all so dont get mad at me if 
wrong...but i think i tabbed this song pretty darn good. :)

without further adue, here are the chords for the song. STANDARD Tuning.

   F      Dm      Am       C
 --1--   --1--   --0--   --0--|
 --1--   --3--   --1--   --1--|
 --2--   --2--   --2--   --0--|
 --3--   --0--   --2--   --2--|
 --3--   -----   -----   --3--|
 --1--   -----   -----   -----|

The song pretty much follows this pattern throughout the whole song:

F, Dm, Am, C

I'll give you the starting lines...

       F                                 Dm
And tonight I lack the strength to even move..

      Am                    C
You walked, and watched me die..
[ Tab from: http://www.guitartabs.cc/tabs/p/pilate/alright_crd_ver_2.html ]
       F                      Dm
But I know this is harder for you...

     Am               C
For love has let you down..


             F     Dm
And I can't feel you...

          Am               C
I'm not alright, I'm not alright...

Again, follow that pattern for the whole song and you should be good to go!

If you want the melodic parts, I've tabbed them for you as well. i'm not gonna tab all 
counts, but this is basically it.

e -8-8-8-8-8-8-8-8----5-5-5-5--6-6-6-6----8-8-8-8-8-8-8-8----3-3-3-3--|
B --------------------------------------------------------------------|
G --------------------------------------------------------------------|
D --------------------------------------------------------------------|
A --------------------------------------------------------------------|
E --------------------------------------------------------------------|

that's it! enjoy :)