Pik - Female Basketball Chords & Tabs

 

Female Basketball Chords & Tabs

Pik Chords & Tabs

Version: 1 Type: Chords 0 ratings
1 star 2 stars 3 stars 4 stars 5 stars
comments

Female Basketball Chords

   
          Fma7                    E+                                D-                               ?

 e | -------------------|--------------------------|------1------------------|----------------------
B | ----1--------------|-----1-------------------|--------------------------|-----1----------------
G | -------2-----------|-----1-------------------|-------1-----------------|------------------------
D | -----------3-------|----------2--------------|--------------------------|------1----------------
A | --------------------|--------------------------|--------------------------|------------------------
E | --------------------|-------------------------- |--------------------------|-----------------------




Verse




Fma7                   C                        G            D               A                                   E



Fma7                   C                       G             D              A                                     E




 Chorus


[ Tab from: http://www.guitartabs.cc/tabs/p/pik/female_basketball_crd.html ]
E+                      E                            E+ D- E+          E+ D- E+                E ? E                    E ? E      



Verse 




Fma7        C             G            D         A                                       E        




Fma7        C             G            D         A                                       E        





Repeat
Chorus 





Outro          e | -0—1----3----1-----|---0---1----3----1---|--0---1----0----1----|---0-----1-----0-------|--0-----------
                  B | -----------------------|-----------------------|-----------------------|---------------------3--|-------------
                  G | -----------------------|-----------------------|-----------------------|-------------------------|---------------       
                  D | -----------------------|-----------------------|-----------------------|-------------------------|---------------
                  A | -----------------------|-----------------------|-----------------------|-------------------------|---------------
                 E   | -----------------------|-----------------------|-----------------------|-------------------------|-------000---

                                                                                         E
Comments