Pig Destroyer - Oven Melvins Cover Chords & Tabs

 

Oven Melvins Cover Chords & Tabs

Pig Destroyer Chords & Tabs

Version: 1 Type: Tab 0 ratings
1 star 2 stars 3 stars 4 stars 5 stars
comments

Oven Melvins Cover Tab

Band:  (Pig Destroyer)
Album: (38 Counts Of Battery)
Song:  (Oven (Melvins Cover))

Pig Destroyer is the craziest fuckin grind metal band in the US.  This is probably
the best song off of the 38 counts of battery album.


Tabbed by: Jay
E mail: Iron maiden Xii@aol.com

.  - palm mute           /  - slide up to
\  - slide down to       ~  - vibrato
h  - hammer on           b  - Bend
p  - pull off            Suffixes for bend
t  - tap                 f  - full bend    h - half bend
ph - pinched harmonic    q  - quarter bend t - tap bend
*  - see comment         ^  - Hold bend    r release bend
x  - Stuccatto           ~  - vibrato bend
,  - slight palm mute    () - ghost note, sustained note
"  - tremolo note        <> - Trill

Tunning   Normal

There really aren't any "riffs" so to say but it all goes like this...


|--------------------------------|------------------------|
|--------------------------------|------------------------|
|-3-------3---------4------4-----|-3-------3---------4----|repeat
|-3-------3---------4------4-----|-3-------3---------4----|
|-1-1-1-1-1-1-1-1---2------2-----|-1-1-1-1-1-1-1-1---2----|
|---0-0-0---0-0-0-0------0-------|---0-0-0---0-0-0-0------|
    . . .   . . . .      .           . . .   . . . .


|--------|-----------------------|repeat          -------------------|
|--------|-----------------------|2 1/2x          -------------------|
|--------|-3--------------4------|                -3-----------------|
|--------|-3--------------4------|        then    -3-----------------|
|-1------|-1--------------2------|                -1-----------------|
|-0------|----------0-0-0--------|                ---------0-0-0-0---|
  .                 . . .                                  . . . .
[ Tab from: http://www.guitartabs.cc/tabs/p/pig_destroyer/oven_melvins_cover_tab.html ]
|-----------|------------|-------------|
|-----------|------------|-------------|
|-----------|------------|-------------|
|-----------|------------|-------------|
|-----------|------------|-------------|
|-0-0-0-0---|------------|-----------0-|
  . . . .                            .


|-------|----------------|-----------------|
|-------|----------------|-----------------|
|-3-----|----------------|-3---------------|
|-3-----|----------------|-3---------------|
|-1-----|-1-1-----1------|-1----1-1--------|
|-------|-0-0-----0---0--|------0-0-----0--|
          . .     .   .         . .     .

|-------|------------------------------|
|-------|------------------------------|
|-3-----|-3----------------------------|
|-3-----|-3----------------------------|
|-1-----|-1----1-------1-------1-------|
|-------|------0-0-0-0-0-0-0-0-0-0-0-0-|
               . . . . . . . . . . . .


    Riff thingy
|-------------------|---------------------|
|-------------------|---------------------|
|-------------------|---------------------|
|-2-----------------|---------------------|
|-2-----------------|-------2----------1--|
|-0------0------0-0-|-0-2-3---3-2-3-2-----|



|----------------------|Repeat       ----------------|
|----------------------|Riff thingy  ----------------|
|----------------------|Add:         ----------------|
|----------------------|             ----------------|
|----------------------|             ----------------|
|-0-0-0-0----0-0-0-0---|             --------0-0-0-0-|
  . . . .    . . . .                         . . . .
   Repeat Riff thingy

|----------------------|---------------------------------|----|
|----------------------|---------------------------------|----|
|----------------------|---------------------------------|----|
|----------------------|---------------------------------|----|
|-1-------1------------|-1-------1-------1-------1-------|-1--|
|-0-0-0-0-0-0-0-0------|-0-0-0-0-0-0-0-0-0-0-0-0-0-0-0-0-|-0--|
  . . . . . . . .        . . . . . . . . . . . . . . . .   .
Comments