Pietasters - Without You Chords & Tabs

 

Without You Chords & Tabs

Pietasters Chords & Tabs

Version: 2 Type: Bass Tab 0 ratings
1 star 2 stars 3 stars 4 stars 5 stars
comments

Without You Bass Tab

Song:      'Without You'
By:        Pietasters
Album:     Willis 
Tabbed by: Justin (illihexill@aol.com)

Got some books...:
==================

G:---5-8----------7-10-------
D:-6-------5-8--8--------5-8-
A:-------6-------------6-----
E:---------------------------
B:---------------------------

You took my lovin...:
=====================
[ Tab from: http://www.guitartabs.cc/tabs/p/pietasters/without_you_btab_ver_2.html ]
G:------------------------------------------------------------
D:-------------------------------------------1----------------
A:-3--1-4-----3--1------3--1-4----3--1---3-1------6-6-6-6-6-6-
E:--------4--------3-----------4-------3--------4-------------
B:------------------------------------------------------------

That's all...need any songs tabbed?
illihexill@aol.com or Dried_Up_Markers_Bass_Player@juno.com
Comments