Pietasters - Out All Night Chords & Tabs

 

Out All Night Chords & Tabs

Pietasters Chords & Tabs

Version: 1 Type: Bass Tab 0 ratings
1 star 2 stars 3 stars 4 stars 5 stars
comments

Out All Night Bass Tab

Song:  Out All Night
Band:  THE PiETASTERS
tabbed by:  Andy (pie_tasters@hotmail.com)



Intro (hold first 5 notes)
G:--------------------------------------------------
D:--------------------------------------------------
A:----3-----1-----3----------------1-1-1-1-1-1-3-3--
E:-0-----3-----0-----3--3-3-3-3-3-------------------

G:-------------------------------------------------------------
D:-----------3-3-0-2-0-----------------------------------------
A:----------------------3---3-----------------1-1-1-1-1-0------
E:-0--0-0-0---------------3----3--3-3-3-3-3-3-------------3-3--

G:---------------------------------------------------------------
D:---------------------------------------------------------------
A:----3-----1-----3----------------1-1-1-1-1-1-3-3--1-1-1-3-3-3--
E:-0-----3-----0-----3--3-3-3-3-3--------------------------------

1st verse
G:------------------------------------------------------------------
D:------------------------------------------------------------------
A:-----------------3-3-3-3-3-3-3-3-----------------1-1-1-1-1-1------
E:-0-0-0-0-0-0-0-0-----------------3-3-3-3-3-3-3-3-------------3-3--


G:-------------------------------------------------------------------
D:-------------------------------------------------------------------
A:-----------------3-3-3-3-3-3-3-3-----------------1-1-1-1-3-3-3-3---
E:-0-0-0-0-0-0-0-0-----------------3-3-3-3-3-3-3-3-------------------


G:----------------------------------
D:----------------------------------
A:------------------1-1-1-1-3-3-3-3-
E:-3-3-3-3-3-3-3-3------------------

(the "I never wanted" part)
G:--------------------------------0--2--
D:----------3-3-0-2-0-----------3-------
A:---------------------3---3--5---------
E:-0--0-0-0--------------3--------------


G:-------------------------------------------------------------------------
D:----0-2-3-0--------------------------------------------------------------
A:-1----------3-0-----------------3-3-1-1-0-0----------------------111-333-
E:----------------0-0-0-0-0-0-0-0-------------0-0--3-3-3-3-3-3-3-3---------


2nd Verse(same as first)


(the 2nd "I never wanted" part)
G:--------------------------------0--2--
D:----------3-3-0-2-0-----------3-------
A:---------------------3---3--5---------
E:-0--0-0-0--------------3--------------


G:-----------------------------------------------------------------
D:----0-2-3-0------------------------------------------------------
A:-1----------3-0-----------------3-3-1-1-0-0----------------------
E:----------------0-0-0-0-0-0-0-0-------------0-0--3-3-3-3-3-3-3-3-


G:------------------------------------------
D:------------------------------------------
A:-1-1-1-1-1-1-1-1-----------------111-333--
E:-----------------3-3-3-3-3-3-3-3----------
[ Tab from: http://www.guitartabs.cc/tabs/p/pietasters/out_all_night_btab.html ]
Chorus 3 times
G:-----------------------------------------------------------
D:----------3-3-0-2-0----------------------------------------
A:--------------------3---3----------------1-1-1-1-1-0-------
E:-0--0-0-0-------------3---3--3-3-3-3-3-3-------------3-3---

Chorus (on the 4th time play this)
G:---------------------------------------------------
D:----------3-3-0-2-0--------------------------------
A:--------------------3---3----------------111--333--
E:-0--0-0-0-------------3---3--3-3-3-3-3-3-----------

3rd Verse(same as first)

(the 3nd "I never wanted" part)
G:--------------------------------0--2--
D:----------3-3-0-2-0-----------3-------
A:---------------------3---3--5---------
E:-0--0-0-0--------------3--------------


G:-----------------------------------------------------------------
D:----0-2-3-0------------------------------------------------------
A:-1----------3-0-----------------3-3-1-1-0-0----------------------
E:----------------0-0-0-0-0-0-0-0-------------0-0--3-3-3-3-3-3-3-3-


G:------------------------------------------
D:------------------------------------------
A:-1-1-1-1-1-1-1-1-----------------111-333--
E:-----------------3-3-3-3-3-3-3-3----------


Chorus 3 times
G:-----------------------------------------------------------
D:----------3-3-0-2-0----------------------------------------
A:--------------------3---3----------------1-1-1-1-1-0-------
E:-0--0-0-0-------------3---3--3-3-3-3-3-3-------------3-3---

Chorus (on the 4th time play this)
G:---------------------------------------------------
D:----------3-3-0-2-0--------------------------------
A:--------------------3---3----------------111--3-3--
E:-0--0-0-0-------------3---3--3-3-3-3-3-3-----------

next play this 
G:----2--3--5-----------------2--3--5----------------2--3--5-----------
D:-3--------------2--3--5--3-------------0--2--3--3-------------2-3-5--
A:-------------3----------------------1-----------------------3--------
E:---------------------------------------------------------------------

G:---------------2-3-3-3-3-3-3-2-2--0-0-0------0-----------2--
D:-0-0-0-0-0-0-3--------------------------0-3----3--0--0-3----
A:------------------------------------------------------------
E:------------------------------------------------------------

G:-3--3-3---3--3--1-------2-3--5--5-5---5---5------5---5----0---5-
D:--------3----------3--3-------------2---2---------------2---2---
A:----------------------------------------------------------------
E:----------------------------------------------------------------

hold each note
G:-----------------------------------
D:-----------------------------------
A:----------3---------1----------3---
E:-----0---------0---------0---------

ending 4 times
G:----------------------------------------------------------
D:-----------------------------------------3-3-0-2-0--------
A:--------------1-1-1-1-1-1-1-3-3--------------------3---3--
E:-3--3-3-3-3-3-------------------0--0-0-0-------------3----

Listen to the cd for all the changes.
any comments e-mail at pie_tasters@hotmail.com
Comments