Pietasters - Little Engine Chords & Tabs

 

Little Engine Chords & Tabs

Pietasters Chords & Tabs

Version: 2 Type: Bass Tab 0 ratings
1 star 2 stars 3 stars 4 stars 5 stars
comments

Little Engine Bass Tab

Song:Little Engine      
Band:PiETASTERS
Album:Selftitled or "PIESTOMP"
tabbed by: Jarrett Armstrong 
ICQ# 11580064



[ Tab from: http://www.guitartabs.cc/tabs/p/pietasters/little_engine_btab_ver_2.html ]
G:--------------|
D:12-11-9-------|x4
A:--------9-8-7-|
E:--------------|


G:------------|
D:12-11-9-----|x4
A:--------9-7-|
E:------------|


G:-----------|
D:--7-10-7-8-|X4
A:8----------|
E:-----------|




Comments